Madison - Ive Got Fives Chords & Tabs

 

Ive Got Fives Chords & Tabs

Madison Chords & Tabs

Version: 1 Type: Chords 0 ratings
1 star 2 stars 3 stars 4 stars 5 stars
comments

Ive Got Fives Chords

   
Intro:  A F# D E

Piana intro :

e|--0--4--5--0--4--5--7--5--4--0--4--5--0--4--5--7--5--4-----------|
B|-----------------------------------------------------------------|
G|-----------------------------------------------------------------|
D|-----------------------------------------------------------------|
A|-----------------------------------------------------------------|
E|-----------------------------------------------------------------|


Verse :
 A
I've sat through this so many times.
                                          F#                      D
I said I'm such a fool for thinking that I'd sit through this again.
D
So leave a note on your bedpost.
 E
I'll browse through your words in my head.

I'll browse right through your words while thinking...
 A
What is it that you really wanted?
 F#                                     D                               E
What exactly did you want to hear me say now that I'm ripped and torn away?

Chorus :
[ Tab from: http://www.guitartabs.cc/tabs/m/madison/ive_got_fives_crd.html ]
e|----------------------------------------------------------------------------|
B|---5-----5-----5------------------------------------------------------------|
G|---2-----4-----2--------------( x 2 )---------------------------------------|
D|---4-----2-----0------------------------------------------------------------|
A|----------------------------------------------------------------------------|
E|----------------------------------------------------------------------------|

A                         E                       F#
Everyone's going to the party tonight because they all know she's gonna be
 D
there.
 D                       E
And they all want a piece of something they couldn't reach.
 A
You're gone and I'm home.
F#
You're gone and I'm home.
D                E
I'm home but its not me.

Chorus :

Bridge :  ( x 2 )

e|-------------0-----0----|--------------0-----0-----|----------0----0-----|
B|-------0----------------|--------0-----------------|-----0---------------|
G|---2-----2-----2-----2--|----2-----2-----2------2--|--2----2----2----2---|
D|-4---4-----4-----4-----4|--2---2-----2-----2------2|-0-0----0----0-----0-|
A|------------------------|--------------------------|---------------------|
E|------------------------|--------------------------|---------------------|

Same chords as the chorus for this part. \/ \/

Everyone's going to the party tonight because they all know she's gonna be
there.

Chorus :


    A      F#     D      E

e|------|------|------|------|
B|------|------|--2---|------|
G|--2---|--2---|--3---|--1---|
D|--2---|--4---|--0---|--2---|
A|--0---|--4---|------|--2---|
E|------|------|------|--0---|
Comments