Madison - Fall From Grace Chords & Tabs

 

Fall From Grace Chords & Tabs

Madison Chords & Tabs

Version: 1 Type: Tab 0 ratings
1 star 2 stars 3 stars 4 stars 5 stars
comments

Fall From Grace Tab

Madison - Fall From Grace


Listen to the cd to figure out the rhythms. 

Intro: Guitar 1 
e|--------------------------------------------------------------------------| 
B|--------------------------------------------------------------------------| 
G|-6--6--6--6---------------------------------------------------------------| 
D|-7--7--7--7---------------------------------------------------------------| 
A|-9--7--5--7---------------------------------------------------------------| 
E|----------5---------------------------------------------------------------| 

Intro: Guitar 2 
e|---------------------5-4-0-------------------------------------------------| 
B|---------------------------------------------------------------------------| 
G|-11--11--9--7--6-----------------------------------------------------------| 
D|---------------------------------------------------------------------------| 
A|--9--9---7--5--4-----------------------------------------------------------| 
E|---------------------------------------------------------------------------| 

Guitar 1 
e|---------------------------------------------------------------------------| 
B|---------------------------------------------------------------------------| 
G|-11--13--14----9--13--14----7--13--14-------14--13-------------------------| 
D|---------------------------------------------------------------------------| 
A|--9--11--12----7--11--12----5--11--12----7--12--11-------------------------| 
E|-----------------------------------------5---------------------------------| 
[ Tab from: http://www.guitartabs.cc/tabs/m/madison/fall_from_grace_tab.html ]
Guitar 2 
e|---------------------------------------------------------------------------| 
B|---------------------------------------------------------------------------| 
G|-------------------------------------------------------6-4-6-7-6-4---------| 
D|-------7-----------------------------------------------7-6-7-9-7-6---------| 
A|-4--2--5--7----------------------------------------------------------------| 
E|-2--0-----5----------------------------------------------------------------| 

Verse: Guitar 1 
e|---------------------------------------------------------------------------| 
B|---------------------------------------------------------------------------| 
G|-11--9--7-----11--14--13--14--16--14--13--11--9--7--6--------------------| 
D|---------------------------------------------------------------------------| 
A|-9---7--5--7--9---12--11--12--14--12--11--9---7--5--4---------------------| 
E|-----------5----------------------------------------------------------------| 

Verse: Guitar 2 
e|---------------------------------------------------------------------------| 
B|---------------------------------------------------------------------------| 
G|---------------------------------------------------------------------------| 
D|-------7-------------------------------------------------------------------| 
A|-4--2--5--7----------------------------------------------------------------| 
E|-2--0-----5----------------------------------------------------------------| 

Chorus: Guitar 1 
e|---------------------------------------------------------------------------| 
B|---------------------------------------------------------------------------| 
G|-11--9--13--14--13---------------------------------------------------------| 
D|---------------------------------------------------------------------------| 
A|-9---7--11--12--11---------------------------------------------------------| 
E|---------------------------------------------------------------------------| 

Chorus: Guitar 2 
e|---------------------------------------------------------------------------| 
B|---------------------------------------------------------------------------| 
G|---------------------------------------------------------------------------| 
D|-----7--7--7-----6---------------------------------------------------------| 
A|--4--4--5--4--7--7---------------------------------------------------------| 
E|--2-----------5------------------------------------------------------------|
Comments