Madcap - Better Day Chords & Tabs

 

Better Day Chords & Tabs

Madcap Chords & Tabs

Version: 1 Type: Tab 0 ratings
1 star 2 stars 3 stars 4 stars 5 stars
comments

Better Day Tab

Band: Madcap
Official Website: http://www.madcap.net

*The noise in the beginning isn't guitar!

Guitar 1 Intro: 

E|--------------------------|
B|--------------------------|
G|--------------------7--7--|
D|-7~-----------------7--7--|
A|-7------------------5--5--|
E|-5------------------------|

Guitar 2 Intro:

E|--------------------------|
B|--------------------------|
G|----6-6-6--4-2-2-4--2--2--|
D|--------------------------|
A|----4-4-4--2-0-0-2--0--0--|
E|--------------------------|

Intro 2:

E|------------------------------------|
B|------------------------------------|
G|-11-999999999999--11-777777777777---|
D|-11-999999999999--11-777777777777---|
A|--9-777777777777---9-555555555555---|
E|------------------------------------|

Verse:

E|------------------------------------------|
B|------------------------------------------|
G|------------77777777------------99999999--|
D|--77777777--77777777--99999999--99999999--|
A|--77777777--55555555--99999999--77777777--|
E|--55555555------------77777777------------|

Pre-chorus:

(It'll be a better day...)
E|---------------------------------|
B|---------------------------------|
G|-------------------777777777777--|
D|-7777777777777777--777777777777--|
A|-7777777777777777--555555555555--|
E|-5555555555555555----------------|
[ Tab from: http://www.guitartabs.cc/tabs/m/madcap/better_day_tab.html ]
E|------------------------------------|
B|------------------------------------|
G|-11-999999999999--11-777777777777---|
D|-11-999999999999--11-777777777777---|
A|--9-777777777777---9-555555555555---|
E|------------------------------------|

Guitar 1 Chorus:

E|------------------------------------------|
B|------------------------------------------|
G|------------77777777------------99999999--|
D|--77777777--77777777--99999999--99999999--|
A|--77777777--55555555--99999999--77777777--|
E|--55555555------------77777777------------|

Guitar 2 Chorus:

E|------------------------------------------|
B|------------------------------------------|
G|--7-6-4-2-4-2---7-6-4-2-4-6---7-6-4-2-4-2-|
D|------------------------------------------|
A|--5-4-2-0-2-0---5-4-2-0-2-4---5-4-2-0-2-0-|
E|------------------------------------------|

E|------------------------------------------|
B|------------------------------------------|
G|--7-6-4-7-6-2---7-6-4-2-4-2---7-6-4-2-----|
D|------------------------------------------|
A|--5-4-2-5-4-0---5-4-2-0-2-0---5-4-2-0-----|
E|------------------------------------------|

E|-------------------------|
B|-------------------------|
G|--7-6-4-2-4-2---7-6-4-2--|
D|-------------------------|
A|--5-4-2-0-2-0---5-4-2-0--|
E|-------------------------|

Solo:

E|------------------------------------------------------|
B|------------------------------------------------------|
G|-222-4-7-5-4-5--000-2-4-2-0-2--222-4-7-5-4-5--000-2-4-|
D|------------------------------------------------------|
A|------------------------------------------------------|
E|------------------------------------------------------|

Just figure out the song structure. It's really easy.
Comments