Madball - Cant Stop Wont Stop Chords & Tabs

 

Cant Stop Wont Stop Chords & Tabs

Madball Chords & Tabs

Version: 1 Type: Tab 0 ratings
1 star 2 stars 3 stars 4 stars 5 stars
comments

Cant Stop Wont Stop Tab

------------------------------------------------------------------------------- 
                      Can't Stop Won't Stop - Madball 
------------------------------------------------------------------------------- 

Tommeck88@rtl-online.de 

E-------------------------------------- 
B-------------------------------------- 
G-------------------------------------- 
D---5**-6**----9**-10*---9**-10*------- 
A---5**-6**----7**-8-*---7**-8-*------- 
E---3**-4**---------------------------- 

E-------------------------------------- 
B-------------------------------------- 
G-------------------------------------- 
D---5**-6**----2***-2-3-3-2-3-3-------- 
A---5**-6**----2***-2-3-3-2-3-3-------- 
E---3**-4**----0***-0-1-1-0-1-1-------- 

E-------------------------------------- 
B-------------------------------------- 
G-------------------------------------- 
D---5**-6**----9***-10*--12*----------- 
A---5**-6**----7***-8-*--10*----------- 
E---3**-4**---------------------------- 

E-------------------------------------- 
B-------------------------------------- 
G-------------------------------------- 
D---5**-6**----9***-10*--12*----------- 
A---5**-6**----7***-8-*--10*----------- 
E---3**-4**---------------------------- 
[ Tab from: http://www.guitartabs.cc/tabs/m/madball/cant_stop_wont_stop_tab.html ]
E-------------------------------------------------------------------------- 
B-------------------------------------------------------------------------- 
G-------------------------------------------------------------------------- 
D---5**-6**----2r-----------3---3-2r-----------3---3-2r-----------3---3---- 
A---5**-6**----2r---------2-3-2-3-2r---------2-3-2-3-2r---------2-3-2-3-2-- 
E---3**-4**----0r---------0-1-0-1-0r---------0-1-0-1-0r---------0-1-0-1-0-- 

E---------------- 
B---------------- 
G---------------- 
D--5s6---5s6----- 
A--5s6---5s6----- 
E--3s4---3s4----- 

E--------------------------------------------------- 
B--------------------------------------------------- 
G--------------------------------------------------- 
D------3-3---6-5-3s5--------3*---7s9s7-10s9-7s9----- 
A--2---3-3-2-6-5-3s5------2-3*---5s7s5-8-s7-5s7----- 
E--0-0-1-1-0-4-3-1s3------0-1*---------------------- 

E----------------------------------------------- 
B----------------------------------------------- 
G----------------------------------------------- 
D--9r------------9r-----------5*-----7*----9---- 
A--7r------------7r-----------3*-----5*----7---- 
E----------------------------------------------- 

-------------------------------------------------------------------------------
Comments