Madasun - Dont You Worry Chords & Tabs

 

Dont You Worry Chords & Tabs

Madasun Chords & Tabs

Version: 1 Type: Tab 0 ratings
1 star 2 stars 3 stars 4 stars 5 stars
comments

Dont You Worry Tab

This is the riff. It is the same for verses and for chorus. just repeat it.
                                                       
E||------------------------------|---------------------------|
B||------------------------------|---------------------------|
G||------------------------------|---------------------------|
D||----------13--------11--------|--------9-----11-----9-----|
A||------11---------9---------9--|-----7---------------------|
D||--11----------9---------9-----|--7--------7------7-----7--|

[ Tab from: http://www.guitartabs.cc/tabs/m/madasun/dont_you_worry_tab.html ]
                                                          
  |------------------------------|--------------------------|
  |------------------------------|--------------------------|
  |------------------------------|--------------------------|
  |----------13--------11--------|--------6-----7-----6-----|
  |------11---------9---------9--|-----4--------------------|
  |--11----------9---------9-----|--4--------4-----4-----4--|


                                                           
  |------------------------------|---------------------------|
  |------------------------------|---------------------------|
  |------------------------------|---------------------------|
  |----------13--------11--------|--------9-----11-----9-----|
  |------11---------9---------9--|-----7---------------------|
  |--11----------9---------9-----|--7--------7------7-----7--|


                                                       
  |------------------------------|----------------------||
  |------------------------------|----------------------||
  |------------------------------|-----------9----------||
  |----------13--------11--------|--------9-------------||
  |------11---------9---------9--|-----7----------------||
  |--11----------9---------9-----|--7-------------------||
Comments