Mad Season - Wake Up Chords & Tabs

 

Wake Up Chords & Tabs

Mad Season Chords & Tabs

Version: 1 Type: Bass Tab 0 ratings
1 star 2 stars 3 stars 4 stars 5 stars
comments

Wake Up Bass Tab

MAD SEASON
WAKE UP
Transcribed by Davy Van Den Bremt
Suggestions: Davy.VanDenBremt@village.uunet.be

G|-------------------------------------------------------------------------
D|------------------------------9--10--12--10------------------------------
A|--12------12------12------10-----------------12------12------12------12--
E|------12------12------12-------------------------12------12------12------

G|-------------------------------------------------------------------------
D|----------------------------------------------------------------------9--
A|------10--0--2--3--5--3-----0--12------0--12------12------12--10--10-----
E|--12---------------------3---------12---------12------12-----------------

G|-------------------------------------------------------------------------
D|--10--12--10-------------------------------------------------------------
A|------------------12------0------12--12------12------10--10--0--2--3--5--
E|--------------12------12-----12----------12------12----------------------

G|-------------------------------------------------------------------------
D|------------------------------------------9--10--12--10------------------
A|--3-----0--12------0--12--12------10--10-----------------12------12------
E|-----3---------12-------------12-----------------------------12------12--

G|-------------------------------------------------------------------------
D|-------------------------------------------------------------------------
A|--0------12------0------12------10--12--10---10--3--5--3-----0--12--10---
E|-----12------12-----12------12----------------------------3--------------

G|-------------------------------------------------------------------------
D|-----------------------------9--10--12--10-------------------------------
A|------0--12------12------12---------------------0--0------12--12------12-
E|--12---------12------12---------------------12--------12----------12-----

G|-------------------------------------------------------------------------
D|----------------------------------------------12--10---------------------
A|------10--10--0--2--3--5--3-----0--12------0----------10--12--10--10--0--
E|--12-------------------------3---------12--------------------------------

G|-------------------------------------------------------------------------
D|-------------------------------------------------------------------------
A|--0--2--3--5--3-----0--12--12--10----------10--0--2--3--5--3-------------
E|-----------------3-----------------12--10---------------------0--2--3--5-

G|-------------------------------------------------------------------------
D|-------------------------------------------------------------------------
A|--12--10------0--12------10------10--10--0--2--3--5--3--------------12---
E|----------12---------10------12-------------------------0--2--3--5-------

G|-------------------------------------------------------------------------
D|-------------------------------------------------------------------------
A|--12--10----------10--10--0--2--3--5--3-----------12--10----------0--12--
E|----------12--10-------------------------0--3--5----------12--10---------


G|-------------------------------------------------------------------------
D|-------------------------------------------------------------------------
A|--10----------10--10--0--2--3--5--3-----------12--10------12--10---------
E|------12--10-------------------------0--3--5----------12----------12--10-

G|-------------------------------------------------------------------------
D|------------------------------------------10--12--10---------------------
A|--10--10--0--2--3--5--3---------------10----------------------12------0--
E|-------------------------0--3--5--10------------------10--12------12-----

G|-------------------------------------------------------------------------
D|-------------------------------------------------------------------------
A|------12--12--10----------10--10--0--2--3--5--3--------------12------0---
E|--12--------------12--10-------------------------0--2--3--5------12------

G|-------------------------------------------------------------------------
D|-------------------------------------------------------------------------
A|--12--10------10--0--2--3--5--3--------------12------12------0------12---
E|----------10---------------------0--2--3--5------12------12-----12-------
[ Tab from: http://www.guitartabs.cc/tabs/m/mad_season/wake_up_btab.html ]
G|-------------------------------------------------------------------------
D|-------------------------------------------5--------------5--------------
A|------10--0--2--3--5--3--------------5--7-----7-----5--7-----7--10--12---
E|--12---------------------0--2--3--5--------------5-----------------------

G|-------------------------------------------------------------------------
D|-------------------------------------------------------------------------
A|--10------0--5--3------10--12------10--12--12--10------10--0--2--3--5--3-
E|------12-----------12----------12------------------12--------------------

G|-------------------------------------------------------------------------
D|-------------------------------------------------------------------------
A|--12--12--10------0-----0--2--3--5--3-----------12--0--12--10------10--0-
E|--------------12-----3-----------------0--3--5-----------------12--------

G|-------------------------------------------------------------------------
D|-------------------------------------------------------------------------
A|--3--5--3--12--12------0--12--12------12------10--0--2--3--5--3--12--12--
E|-------------------12-------------12------12-----------------------------

G|-------------------------------------------------------------------------
D|------------------------------9--10--12--10------------------------------
A|------12--12------12------10-----------------10--12--0--12------0--0-----
E|--12----------12------12------------------------------------12--------3--

G|-------------------------------------------------------------------------
D|------------------------------------------------9--10--12----------------
A|--0--3--5--3--0------12------0------12------10-----------------12--12--10
E|-----------------12------12-----12------12-----------------12------------

G|-------------------------------------------------------------------------
D|-------------------------------------------------------------------------
A|------0--0--10------10--10--0--2--3--5--3--12--12--10------12--12--0-----
E|--12------------12-------------------------------------12-------------12-



G|-------------------------------------------------------------------------
D|-----------------------------------------------------------9--10--12--10-
A|--10--10--0--2--3--5--3--0--12--10------0--12--10------10----------------
E|------------------------------------12-------------12--------------------

G|-------------------------------------------------------------------------
D|-------------------------------------------------------------------------
A|----------12--0------12------12------10--0--2--3--5--3-----------12------
E|--10--12---------12------12------12---------------------0--3--5------12--

G|-------------------------------------------------------------------------
D|-------------------------------------------------------------------------
A|--0--12--12------10--0--3--5--3--------------12--10------0--12--10-------
E|-------------12------------------0--2--3--5----------12-------------12---

G|-------------------------------------------------------------------------
D|--------------------------------------10---------------------------------
A|------10--0--2--3--5--3-----------12------12--12--10--10--12--10------0--
E|--12---------------------0--3--5----------------------------------12-----

G|-------------------------------------------------------------------------
D|-----------------------5--7-----------5--7-------------------------------
A|--5--3-----------5--7--------0--5--7--------5--10--12--10------0--5--3---
E|--------0--3--5--------------------------------------------12-----------0

G|-------------------------------------------------------------------------
D|-------------------------------------------------------------------------
A|-----------12------10--12--12--10------10--0--2--3--5--3--------------12-
E|--2--3--5------12------------------12---------------------0--2--3--5-----

G|-------------------------------------------------------------------------
D|---------------------------------9--10--12--10---------------------------
A|--10------0--12--10------10--12---------------------12--0------12--10----
E|------12-------------12-------------------------12---------12----------12

G|-------------------------------------|
D|----------9--10--12--10--------------|
A|--12--10-----------------10------12--|
E|-----------------------------12------|

Comments