Mad Capsule Markets - Pulse Chords & Tabs

 

Pulse Chords & Tabs

Mad Capsule Markets Chords & Tabs

Version: 1 Type: Tab 0 ratings
1 star 2 stars 3 stars 4 stars 5 stars
comments

Pulse Tab

------------------------------------------------
Artist: Mad Capsule Markets
Track: Pulse
Album: OSC-DIS (Oscillator in Distortion)
Tabbed by: Hutchy2jj72 (hutchy2j@btinternet.com)
------------------------------------------------

Intro (x4):

e|--------------------|-----------------|------------------------------------|
B|--------------------|-----------------|------------------------------------|
G|--------------------|-5-5-5-5-4-5-----|-5-5-5-5-5-5-5-5-5------------------|
D|--3-3-3-3-3-3-3-3-3-|-5-5-5-5-4-5--x3-|-5-5-5-5-5-5-5-5-5--play 4th time---|
A|--3-3-3-3-3-3-3-3-3-|-3-3-3-3-2-3-----|-3-3-3-3-3-3-3-3-3------------------|
E|--1-1-1-1-1-1-1-1-1-|-----------------|------------------------------------|

Verse (x4):

e|--------------------|---------------------|--------------------------------|
B|--------------------|---------------------|--------------------------------|
G|--5-5-5-5-5-5-5-5-5-|---------------------|--------------------------------|
D|--5-5-5-5-5-5-5-5-5-|-3-3-3-3-5-5-5-5-----|-3-3-3-3-3-3-3-3-3-3------------|
A|--3-3-3-3-3-3-3-3-3-|-3-3-3-3-5-5-5-5--x3-|-3-3-3-3-3-3-3-3-3-3--4th time--|
E|--------------------|-1-1-1-1-3-3-3-3-----|-1-1-1-1-1-1-1-1-1-1------------|

Chorus (x8):
[ Tab from: http://www.guitartabs.cc/tabs/m/mad_capsule_markets/pulse_tab.html ]
e|-----------------|---------------------------------------------------------|
B|-----------------|---------------------------------------------------------|
G|---------5-5-4-4-|-5-5-5-5-5-5-5-5-----------------------------------------|
D|-3-3-3-3-5-5-4-4-|-5-5-5-5-5-5-5-5--play after 8th time--------------------|
A|-3-3-3-3-3-3-2-2-|-3-3-3-3-3-3-3-3-----------------------------------------|
E|-1-1-1-1---------|---------------------------------------------------------|

Middle part 1 (x2):

e|---------------------------------------------------------------------------|
B|---------------------------------------------------------------------------|
G|--5-5-x-x-5-5-x-x-5-5-x-x-5-5-3--------------------------------------------|
D|--5-5-x-x-5-5-x-x-5-5-x-x-5-5-3--------------------------------------------|
A|--3-3-x-x-3-3-x-x-3-3-x-x-3-3-1--------------------------------------------|
E|---------------------------------------------------------------------------|

Middle part 2 (x15)

e|---------------------------------------------------------------------------|
B|---------------------------------------------------------------------------|
G|--5-5-5-5-5-5--3-----------------------------------------------------------|
D|--5-5-5-5-5-5--3-----------------------------------------------------------|
A|--3-3-3-3-3-3--1-----------------------------------------------------------|
E|---------------------------------------------------------------------------|
    *PALM*MUTE*


ORDER
-----
Intro
Verse
Intro
Verse
Chorus
Verse
Intro
Middle part 1
Middle part 2
Verse
Chorus
Verse
Intro
End on X355XX

----------
I really wanted to be able to play this song, but I couldn't find any tabs for 
it anywhere.  So I thought I'd have a go at tabbing it myself.  It sounds 100%
perfect to me.  This is the first time I've tabbed a song purely on my own, so 
please e-mail me with comments or corrections.  Thank you. :-)

===============================================================================
Comments