Mad Capsule Markets - Pulse Chords & Tabs

 

Pulse Chords & Tabs

Mad Capsule Markets Chords & Tabs

Version: 1 Type: Bass Tab 0 ratings
1 star 2 stars 3 stars 4 stars 5 stars
comments

Pulse Bass Tab

   
Tabbed by-Philip Goldsmith
Bass Tabs
Band-Mad Capsule Markets
Song-Pulse

all of mad capsule markets song are pretty easy to play
so i think i'll tab all the ones i can.
have fun learning them.

The Verse1:Repeat

E:-1-1-1-1-1-1-1-1-3-3-3-3--------
A:-------------------------3-3-3-3
D:--------------------------------
G:--------------------------------


The Verse2:Repeat
[ Tab from: http://www.guitartabs.cc/tabs/m/mad_capsule_markets/pulse_btab.html ]
E:*----------------1-1-1-1-3-3-3-3*------------------------
A:*-3-3-3-3-2-3-3-3---------------*-3-3-3-3-3-3-3-3-1-1-1-1
D:*-------------------------------*------------------------
G:*-------------------------------*------------------------

The Chorus:Repeat

E:-1-1-1-1-1-1-1-1--------
A:-----------------3-3-1-1
D:------------------------
G:------------------------

The Bridge:

E:------------------------
A:-3-3-1-3-3-1-3-3-1-3-3-1
D:------------------------
G:------------------------
Comments