Mad Capsule Markets - Island Chords & Tabs

 

Island Chords & Tabs

Mad Capsule Markets Chords & Tabs

Version: 1 Type: Tab 0 ratings
1 star 2 stars 3 stars 4 stars 5 stars
comments

Island Tab

Mad Capsule Markets - 'Island'

intro/verse is these chords broken

--9- -10- -12-
-10- -10- -12-
--9- -11- -13-
---- ---- ----
---- ---- ----
---- ---- ----

intro/verse
e----9-------10-------12------------
b------10-------10-------12---------
g--9------11-------13---------------
d-----------------------------------
a-----------------------------------
e-----------------------------------

verse part2       
e-----------------------------------    
b----------------------------------- 
g------6-------7-------9-------7----                                    
d------------7---7---9---9---7---7--                         
a----7---7-5-------7-------5--------                         
e--5--------------------------------

pops up in the verse in some places              
e-----------------------------------
b------5-----7-----9-----7----------
g----6-----7-----9-----7------------
d--7-----7-----9-----7--------------
a-----------------------------------
e-----------------------------------

at end of verse, just before hardcore bit

e----------
b----------
g----9-----
d----9-----
a----7-----
e----7-----



harcore bit
e-----------------------------------
b-----------------------------------
g-----------------------8-8---------
d-----------------------8-8---------
a--7-7--7-7-7--7-7-7--7-6-6---------
e--5-5--5-5-5--5-5-5--5-6-6---------
[ Tab from: http://www.guitartabs.cc/tabs/m/mad_capsule_markets/island_tab.html ]
e-----------------------------------
b-----------------------------------
g------------------8-8--------------
d------------------8-8--------------
a--6/7-6/7-6/7-6/7-6-6--------------
e--4/5-4/5-4/5-4/5-6-6--------------

other verse
e-----------------------------------
b-----------------------------------
g-------7-7--9-9--7-7---------------
d--7-7--7-7--9-9--7-7---------------
a--7-7--5-5--7-7--5-5---------------
e--5-5--5-5--7-7--5-5---------------

solo
e---------------------------------------------------------
b--------------------9------------------------------------
g---------6------7-9---9--9--7h9p7-6----------------------
d--/7-------7-------------------------7---7-6h7p6---------
a-------------------------------------------------7-------
e---------------------------------------------------------

e---------------------------------------------------------
b---------------------------------------------------------
g--/6---6-7-6---7-6---6-7-6---7-6---6-7-6---7-9-----------
d-----7-------------7-------------7-----------------------
a---------------------------------------------------------
e---------------------------------------------------------

e---/17-17-17-17-17-17-17-17-17-17-17-17-17-17-17-17-17-17-17-17-17-17-17-19---
b------------------------------------------------------------------------------
g------------------------------------------------------------------------------
d------------------------------------------------------------------------------
a------------------------------------------------------------------------------  
Comments