Mad Capsule Markets - Good Girl Chords & Tabs

 

Good Girl Chords & Tabs

Mad Capsule Markets Chords & Tabs

Version: 1 Type: Tab 0 ratings
1 star 2 stars 3 stars 4 stars 5 stars
comments

Good Girl Tab

------------------------------------------------
Artist: Mad Capsule Markets
Track: Good Girl
Album: OSC-DIS (Oscillator in Distortion)
Tabbed By: Hutchy2jj72 (hutchy2j@btinternet.com)
------------------------------------------------

Intro:

e|---------------------------------------------------------------------------|
B|---------------------------------------------------------------------------|
G|---------------------------------------------------------------------------|
D|--3-3-3-3-3-3-3-3-3-3-3-3-3-3-3-3-3-3-3-3-3-3-3-3-3-3-3-3-3-3-3-3----------|
A|--3-3-3-3-3-3-3-3-3-3-3-3-3-3-3-3-3-3-3-3-3-3-3-3-3-3-3-3-3-3-3-3----------|
E|--1-1-1-1-1-1-1-1-1-1-1-1-1-1-1-1-1-1-1-1-1-1-1-1-1-1-1-1-1-1-1-1----------|

Chorus (x4): ("To good girl...")

e|---------------------------------------------------------------------------|
B|---------------------------------------------------------------------------|
G|--5-555555----------------------5-555555-----------------------------------|
D|--5-555555--7-777777--3-333333--5-555555-----------------------------------|
A|--3-333333--7-777777--3-333333--3-555555-----------------------------------|
E|------------5-555555--1-111111---------------------------------------------|
      ******    ******    ******    ******

Shorter intro:

e|---------------------------------------------------------------------------|
B|---------------------------------------------------------------------------|
G|---------------------------------------------------------------------------|
D|--3-3-3-3-3-3-3-3-3-3-3-3-3-3-3-3------------------------------------------|
A|--3-3-3-3-3-3-3-3-3-3-3-3-3-3-3-3------------------------------------------|
E|--1-1-1-1-1-1-1-1-1-1-1-1-1-1-1-1------------------------------------------|

Verse 1 (x8): (Japanese singing)
[ Tab from: http://www.guitartabs.cc/tabs/m/mad_capsule_markets/good_girl_tab.html ]
e|---------------------------------------------------------------------------|
B|---------------------------------------------------------------------------|
G|---------------------------------------------------------------------------|
D|--3-x-5-3--x-3-5-3---------------------------------------------------------|
A|--3-x-5-3--x-3-5-3---------------------------------------------------------|
E|--1-x-3-1--x-1-3-1---------------------------------------------------------|

Verse 2 (x4): ("To good girl, to good, good, good, good girl...")

e|-------------------------|---------------------------|---------------------|
B|-------------------------|---------------------------|---------------------|
G|-------------------------|---------------------------|---------------------|
D|--5-3-x-x-5-3-x-x-5-3----|-5-3-x-x-5-3-3-5-----------|-3-3-3--3-3-3--Final-|
A|--5-3-x-x-5-3-x-x-5-3-x3-|-5-3-x-x-5-3-3-5--4th time-|-3-3-3--3-3-3--time--|
E|--3-1-x-x-3-1-x-x-3-1----|-3-1-x-x-3-1-1-3-----------|-1-1-1--1-1-1--------|
							 * * *  * * *

For this verse, play the first part 3 times, then the the second part every
forth time x3.  Then the 4th time, play the first part 3 times, then the 3rd
part the last time.  Listen to the song to understand it.  This is the easiest
I could tab this part of the song.

End:

e|---------------------------------------------------------------------------|
B|---------------------------------------------------------------------------|
G|-----------------------------------5---------------------------------------|
D|--3-3-3-3-3-3-3-3-3-3-3-3-3-3-3-3--5---------------------------------------|
A|--3-3-3-3-3-3-3-3-3-3-3-3-3-3-3-3--3---------------------------------------|
E|--1-1-1-1-1-1-1-1-1-1-1-1-1-1-1-1------------------------------------------|


ORDER
-----
Intro
Chorus
Shorter intro
Chorus
Verse 1
Chorus
Verse 2
Chorus
Verse 1
Chorus
End

----------
There you go, another great song by the Mad Capsule Markets.  This was more
difficult to tab than Pulse, but I think it's pretty much correct.  Comments &
corrections are always welcome, just e-mail them to me. :-)
===============================================================================
Comments