Mad Caddies - Shaving Your Life Chords & Tabs

 

Shaving Your Life Chords & Tabs

Mad Caddies Chords & Tabs

Version: 1 Type: Tab 0 ratings
1 star 2 stars 3 stars 4 stars 5 stars
comments

Shaving Your Life Tab

SHAVING YOUR LIFE by Mad Caddies. Album : Rock the Plank (2001)           1/4
Fantastic parts and smashing atmosphere. Play it!
A=left guitar   B=right guitar   A&B=both
:
# verse #A *=play 4-5X  
E--------------------------------------3-----------------------------|
B---3--------*------3--------------3---3----*------------------------|
G---3-------3----*--3-------8---8--3-------3----*--3-------8---8-----|
D---5-------3---3---5-------888-8885-------3---3---5-------888-888---|
A---5-------1---3---5-------656-6565-------1---3---5-------656-656---|
E---3-----------1---3--------------3-----------1---3-----------------|
# verse #B *=play 4-5X  
E-----------------------3--------------------------3-----------------|
B---3--------*----------3-------------------*------3-----------------|
G---3-------3----*----------8---8----------3----*--3-------8---8-----|
D---5-------3---3---5-------888-8885-------3---3---5-------888-888---|
A---5-------1---3---5-------656-6565-------1---3-----------656-656---|
E---3-----------1---3--------------3-----------1---------------------|
:                                                      
# bridge #A  p=pull-off                                          >
E---------------------------------------------------------------->
B---------------------------------------------------------------->
G--12\----------------------------------------------------------->
D---------------8h7-8---7---5------------------------------------>
A--10\-----------------------------5-------\\\\\\--8-------\\\\\\>
E---------------------------------------------------------------->
# bridge #B  X=mute + palm-mute                                  >
E---------------------------------------------------------------->
B---------------------------------------------------------------->
G---------------------------------------------------------------->
D---------------------------------------------------------------->
A--------------------------------------------X-X-X-3------\X-X-X->
E---3-------\\X-X-X-1---3---\X-X-X-1---1------------------------->
>bridgeA                                                         >
>---------------------------------------------------------------->
>---------------------------------------------------------------->
>---------------------------------------------------------------->
>-3-5\----------8h7-8---7---5-----10---8---7---5---8---8---8p7--->
>--------------------------------------------------------------8->
>---------------------------------------------------------------->
>bridgeB                                                         >
>---------------------------------------------------------------->
>---------------------------------------------------------------->
>---------------------------------------------------------------->
>---------------------------------------------------------------->
>------------------------------------------X-X-X-X-1---1---1-0--->
>---3-------\\X-X-X-1---3---\X-X-X-1---1-----------------------1->
>bridgeA                                                         >
>---------------------------------------------------------------->
>---------------------------------------------------------------->
>---------------------------------------------------------------->
>---------------8h7-8---7---5------------------------------------>
>--10\-----------------------------5-------\\\\\\--8-------\\\\\\>
>---------------------------------------------------------------->
>bridgeB                                                         >
>---------------------------------------------------------------->
>---------------------------------------------------------------->
>---------------------------------------------------------------->
>---------------------------------------------------------------->
>--------------------------------------------X-X-X-3------\X-X-X->
>---3-------\\X-X-X-1---3---\X-X-X-1---1------------------------->
>>>>>>>>to next page...
:
:
:
:
:
:
SHAVING YOUR LIFE                                                         2/4
:
>bridgeA
>----------------------------------------------------------------|
>----------------------------------------------------------------|
>----------------------------------------------------------------|
>-3-5-----------8h7-8---7---5-----10---8---7---5---8---8---8p7---|
>--------------------------------------------------------------8-|
>----------------------------------------------------------------|
>bridgeB                                                          
>----------------------------------------------------------------|
>----------------------------------------------------------------|
>----------------------------------------------------------------|
>----------------------------------------------------------------|
>------------------------------------------X-X-X-X-1---1---1-0---|
>---3-------\\X-X-X-1---3---\X-X-X-1---1-----------------------1-|
:
# verse2 #A *=play 4-5X  v=vibrato
E-------------------3------------------3---------------3-------------|
B------------*------3--------------3---3----*------3---3-------------|
G-----------3----*--3-------8---8--3-------3----*--3-------8---8-----|
D-----------3---3---5-------888-8885-------3---3---5-------888-888---|
A--10v------1---3---5-------656-6565-------1---3---5-------656-656---|
E---------------1---3--------------------------1---3-----------------|
# verse2 #B *=play 4-5X  
E--------------------------------------------------------------------|
B---3--------*------3-----------------------*------------------------|
G---3-------3----*--3-------8---8----------3----*--3-------8---8-----|
D---5-------3---3---5-------888-8885-------3---3---5-------888-888---|
A---5-------1---3---5-------656-6565-------1---3---5-------656-656---|
E---3-----------1------------------3-----------1---3-----------------|
:
# chorus #A  (Our lives go on...)  *=play 5-6X  m=palm-mute      >
G---------------------------------------------------------------->
D------------------3--3----3--3-----*-------*-------------------->
G---5-5----5--5----3--3----3--3----8-------3--------*-------*---->
D------------------5--5-5555--5-5558-------3-------3-------5----->
A---3-3-3333--3-3335--5-5555--5-5556-------1-------3-------5----->
E-------mmm-----mmm-----mmm-----mmm----------------1-------3----->
# chorus #B  (Our lives go on...)  *=play 5-6X                   >
G---------------------------------------------------------------->
D-----------------------------------*-------*-------------------->
G----------------------------------8-------3--------*-------*---->
D----------------------------------8-------3-------3-------5----->
A---3-6-5-6-3-6-5-6---6-5-65--6-5656-------1-------3-------5----->
E------------------3-------------------------------1-------3----->
>chorusA
>------------------------------------------------------|
>------------------8--8----8--8-----*-------*----------|
>---5-5----5--5----7--7----7--7----8-------3--------*--|
>------------------5--5-5555--5-5558-------3-------3---|
>---3-3-3333--3-3335--5-5555--5-5556-------1-------3---|
>-------mmm-----mmm-----mmm-----mmm----------------1---|
>chorusB
>------------------------------------------------------|
>-----------------------------------*-------*----------|   
>----------------------------------8-------3--------*--|
>----------------------------------8-------3-------3---|   
>---3-6-5-6-3-6-5-6---6-5-65--6-5656-------1-------3---|  
>------------------3-------------------------------1---|
:
>>>>>>>>>>>to next page...
:
:
:
:
:
:
SHAVING YOUR LIFE                                                         3/4
:
# bridge2 #A  !Bplays bridgeB!  p=pull-off  f=flute on a fret between notes...
E---------------------------------------------------------------->
B---------------------------------------------------------------->
G---------------------------------------------------------------->
D---5\----------8h7-8---7---5------------------------------------>
A----------------------------------5-------\\\\\\--8-------\\\\\\>
E---------------------------------------------------------------->
>bridgeA                                                         >
>---------------------------------------------------------------->
>---------------------------------------------------------------->
>---------------------------------------------------------------->
>-3-5\----------8h7-8---7---5-----10---8---7---5---8---8---8p7--->
>--------------------------------------------------------------8->
>---------------------------------------------------------------->
>bridgeA                                                         >
>---------------------------------------------------------------->
>---------------------------------------------------------------->
>---------------------------------------------------------------->
>---------------8h7-8---7---5------------------------------------>
>--10\-----------------------------5-------\\\\\\--8-------\\\\\\>
>---------------------------------------------------------------->
>bridgeA                                                          
>----------------------------------------------------------------|
>----------------------------------------------------------------|
>--5f6-----------------------------------------------------------|
>-3-------------8h7-8---7---5-----10---8---7---5---8---8---8p7---|
>--------------------------------------------------------------8-|
>----------------------------------------------------------------|
:
# verse3 #A *=play 4-5X  v=vibrato
E--------------------------------------3-----------3-----------------|
B------------*-------------------------3----*------3-----------------|
G-----------3----*--3-------8---8----------3----*--3-------8---8-----|
D-----------3---3---5-------888-8885-------3---3---5-------888-888---|
A--10v----\\1---3---5-------656-6565-------1---3---5-------656-656---|
E---------------1---3--------------3-----------1---3-----------------|
# verse3 #B *=play 4-5X  
E--------------------------------------3---------------3-------------|
B---3--------*-------------------------3----*------3---3-------------|
G---3-------3----*------3---8---8----------3----*--3-------8---8-----|
D---5-------3---3---5---5---888-8885-------3---3---5-------888-888---|
A---5-------1---3---5-------656-6565-------1---3---5-------656-656---|
E---3-----------1---3--------------3-----------1---3-----------------|
:
# chorus2 #A  (Our lives go on...)  *=play 5-6X  m=palm-mute     >
G---------------------------------------------------------------->
D------------------8--8----8--8-----*-------*-------------------->
G---5-5----5--5----7--7----7--7----8-------3--------*-------*---->
D------------------5--5-5555--5-5558-------3-------3-------5----->
A---3-3-3333--3-3335--5-5555--5-5556-------1-------3-------5----->
E-------mmm-----mmm-----mmm-----mmm----------------1-------3----->
# chorus2 #B  (Our lives go on...)  *=play 5-6X                  >
G---------------------------------------------------------------->
D-----------------------------------*-------*-------------------->
G----------------------------------8-------3--------*-------*---->
D----------------------------------8-------3-------3-------5----->
A---3-6-5-6-3-6-5-6---6-5-65--6-5656-------1-------3-------5----->
E------------------3-------------------------------1-------3----->
>>>>>>>>>>to next page...
:
:
:
:
:
:
:
SHAVING YOUR LIFE                                                         4/4
:
>chorus2A
>--------------------------------------------------------------|
>------------------8--8----8--8-----*-------*------------------|
>---5-5----5--5----7--7----7--7----8-------3--------*-------*--|
>------------------5--5-5555--5-5558-------3-------3-------5---|
>---3-3-3333--3-3335--5-5555--5-5556-------1-------3-------5---|
>-------mmm-----mmm-----mmm-----mmm----------------1-------3---|
>chorus2B
>--------------------------------------------------------------|
>-----------------------------------*-------*------------------|   
>----------------------------------8-------3--------*-------*--|
>----------------------------------8-------3-------3-------5---|   
>---3-6-5-6-3-6-5-6---6-5-65--6-5656-------1-------3-------5---|  
>------------------3-------------------------------1-------3---|
:
# outro #A  %=pause/            3X               \ *=play 5X   
G------------------|-------%--------%%%----------|------------------>
D------------------|-------%--------%%%----------|---------*-------->
G------------------|-------%7-7-----%%%--------3-|-*---*--5---5/754->
D---5-------8------|5-5-555%5-5-5555%%%5-5-5-335-|5---3---5--------->
A---3-------6------|5-5-333%5-5-3333%%%1-1-1-335-|5---3---3---3/532->
E---3-------6---%%%|3-3-333%----3333%%%----------|3---1------------->
# outro #B  %=pause/            3X               \ *=play 5X   
G------------------|-------%--------%%%----------|------------------>
D------------------|-------%--------%%%----------|---------*---*---->
G------------------|7-7----%7-7-----%%%----------|-*---*--5---5----->
D---5-------8---8-7|----555%----5555%%%8-------8\|5---3---5---5----->
A---3-------6------|5-5-333%5-5-3333%%%5-------5\|5---3---3---3----->
E---3-------6------|----333%----3333%%%6-------6\|3---1------------->
>outroA   
>--------------------------|
>----*---*---*-------------|
>---4---5---5---54-5-4-7\--|
>---------------------35\--|
>---2---3---3---32-3-235\--|
>--------------------------|
>outroB   
>--------------------------|
>------------*-------------|
>----*---*--5--------------|
>---5---3---5---55-5-535\--|
>---5---3---3---32-3-235\--|
>---3---1-------------13\--|
:
Raw energy!
Tabbed by Jussi Heinonen 20.11.2001


[ Tab from: http://www.guitartabs.cc/tabs/m/mad_caddies/shaving_your_life_tab.html ]
Comments