Mad Caddies - Preppy Girl Chords & Tabs

 

Preppy Girl Chords & Tabs

Mad Caddies Chords & Tabs

Version: 3 Type: Tab 0 ratings
1 star 2 stars 3 stars 4 stars 5 stars
comments

Preppy Girl Tab

Preppy Girl
By: The Mad Caddies
Tab By: Jack Wylie



Intro
e|-------------------8------------------------8---------------------
B|---------------8-------8----------------8-------8--------------4--
G|-----------9---------------9--------9---------------9-------5-----
D|------------------------------------------------------------------
A|------------------------------------------------------------------
E|-------8------------------------8-----------------------4---------

e|---4------------------------3---------------------|
B|-------4----------------3-------3-----------------|
G|-----------5--------4---------------4-------------|
D|--------------------------------------------------|
A|--------------------------------------------------|
E|---------------3----------------------------------|

						[Repeat]

Transition w\distortion
e|-----------------------------------------------------------------|
B|-----------------------------------------------------------------|
G|-----------------------------------------------------------------|
D|-------6-6-6-6---5-----------------------------------------------|
A|-------6-6-6-6---5-----------------------------------------------|
E|-------4-4-4-4---3-----------------------------------------------|


Chorus w\distortion
e|-----------------------------------------------------------------|
B|-----------------------------------------------------------------|
G|-------5-5------------------------------------5-5----------------|
D|-------5-5---6-6-6---5---6---5---5------------5-5---6-6---5------|
A|-------3-3---6-6-6---5---6---5---5------------3-3---6-6---5------|
E|-------------4-4-4---3---4---3---3------------------4-4---3------|
[ Tab from: http://www.guitartabs.cc/tabs/m/mad_caddies/preppy_girl_tab_ver_3.html ]
					[3times]
verse    clean w\upstrokes
e|---------8--------8--------4--------3-------------|
B|---------8--------8--------4--------3-------------|
G|---------9--------9--------5--------4-------------|
D|--------10-------10--------6--------5-------------|
A|--------10-------10--------6--------5-------------|
E|---------8--------8--------4--------3-------------|



Intro
Chorus
Verse
Chorus
Verse
Chorus
Intro

Lyrics:

she bought herself a diamond ring
before the evening show
a ninety dollar bracelet
on daddy's visa gold
short black skirts on warm days
with her black socks to her knees
now she's wearing corduroy
instead of bongo jeans
she's a preppie girl
who rules the fashion world
she's a preppie girl
makes me wanna’ hurl
fucking preppie girl

walks to church on Sunday
with her bottle in her hand
wishing she was a rebel
who could terrorize the land
whose that standing so close to her
holding her preppie hand
maybe it is a running back
or just a preppie man

she's a preppie girl
who rules the fashion world
she's a preppie girl
makes me wanna’ hurl
fucking preppie girl

she's got a senior boyfriend
now that bitch is just fifteen
will she lose
will she lose
will she lose
her virginity
well he takes her out on prom night
and he shows her a good time
will he be in her pants by nine?

she's a preppie girl
who rules the fashion world
she's a preppie girl
makes me wanna’ hurl
fucking preppie girl

to you we wish the best of luck
in your oh so preppie life
and if you play your cards right
you might end up a plumbers wife


------------------------------------------

I tried to show most of the rhythms, but just listen, and you will get the rest…I promises.
Comments