Mad Caddies - Preppy Girl Chords & Tabs

 

Preppy Girl Chords & Tabs

Mad Caddies Chords & Tabs

Version: 1 Type: Tab 0 ratings
1 star 2 stars 3 stars 4 stars 5 stars
comments

Preppy Girl Tab

----------------------------------------------------------
		PREPPY GIRL - Mad Caddies
----------------------------------------------------------

Tab By:BryanD4182@juno.com (Bryan Eck)

Intro
e|-------------------8------------------------8---------------------
B|---------------8-------8----------------8-------8--------------4--
G|-----------9---------------9--------9---------------9-------5-----
D|------10-----------------------10-----------------------6---------
A|------------------------------------------------------------------
E|------------------------------------------------------------------
[ Tab from: http://www.guitartabs.cc/tabs/m/mad_caddies/preppy_girl_tab.html ]
e|---4------------------------3---------------------|
B|-------4----------------3-------3-----------------|
G|-----------5--------4---------------4-------------|
D|---------------5----------------------------------|
A|--------------------------------------------------|
E|--------------------------------------------------|

Chorus w\distortion
e|-------------------------------------------------------|
B|-------------------------------------------------------|
G|-------5-----------------------------------------------|
D|-------5---------6--------5-------6-------5------------|
A|-------3---------6--------5-------6-------5------------|
E|-----------------4--------3-------4-------3------------|

verse    clean w\upstrokes
e|---------8--------8--------4--------3-------------|
B|---------8--------8--------4--------3-------------|
G|---------9--------9--------5--------4-------------|
D|--------10-------10--------6--------5-------------|
A|--------10-------10--------6--------5-------------|
E|---------8--------8--------4--------3-------------|


A wackeddog Production
thewackeddog@hotmail.com
http://www.happygrass.8m.com
==============================================================================

Comments