Mad Caddies - Polyester Khakis Chords & Tabs

 

Polyester Khakis Chords & Tabs

Mad Caddies Chords & Tabs

Version: 2 Type: Bass Tab 0 ratings
1 star 2 stars 3 stars 4 stars 5 stars
comments

Polyester Khakis Bass Tab

   
Polyester Khakis
mad caddies


INTRO
G|-------------|
D|-------------|
A|2---2---2---2|
E|-------------|

MAIN  (2X)                     * PLAY 8X
G|-------------------------|-----------------------|--------------------------|-------|
D|---0--2-0-3-3-3-3-3-3-2-0|---0-2-0-3-5-3-2-3-2-0-|---0--2-0-3-3-3-3-3-3-2-0-|--*-*--|
A|-2-----------------------|-2---------------------|-2------------------------|-2/14\-|
E|-------------------------|-----------------------|--------------------------|-------|

BRIDGE1
G|--*-*-*-*--------------------|
D|-0-0-0-0--*----0-3--*----0-3-|
A|---------2-2-2-----2-2-2-----|
E|-----------------------------|
[ Tab from: http://www.guitartabs.cc/tabs/m/mad_caddies/polyester_khakis_btab_ver_2.html ]
BRIDGE2
G|------------2X------------------------|-----------|--------------------------------|
D|3-3-3-1-0---3-3-3-1-0---3-3-3-1-0-----|-----------|3-3-3-1-0---3-3-3-1-0-----------|
A|----------------------------------2-2-|-----------|--------------------------------|
E|--------------------------------------|-3----5----|----------------------3----5----|

MAIN(3X)
BRIDGE1 & 2

BRIDGE 3
G|--------------------------------------------|
D|--------------------------------------------|
A|-22-22-22-22-22-22-22222222/1414141414141414|
E|--------------------------------------------|

MAIN(2X) !!play the last A|14| just one time!!
thats it! for comments mail your dumb reaction to freak182@usa.com
Comments