Mad Caddies - Last Breath Chords & Tabs

 

Last Breath Chords & Tabs

Mad Caddies Chords & Tabs

Version: 1 Type: Bass Tab 0 ratings
1 star 2 stars 3 stars 4 stars 5 stars
comments

Last Breath Bass Tab

Mad Caddies
Last Breath - bass tab
tabbed by spanky - spankydriscoll@Hotmail.com
www.madcaddies.freehosting.net


*drums and horns for first 23 seconds...*

INTRO (0:23)
G------------------------------------------------|
D------------------------------------------------|
A--4-----4-----2-4-------------------------------|
E-----4-----4------4--3~~~-4--4-4-4-4-3-2-2-24~~~|

VERSE (0:37) (1:51)
G------------------------------------------------|
D------------------------------------------------|
A--4-----4--7--6-4-------6----6--------------4~~~|
E-----4------------4--4----4-----43-2-2--5-4-----|
[ Tab from: http://www.guitartabs.cc/tabs/m/mad_caddies/last_breath_btab.html ]
PRE-CHORUS (1:06) (2:19)
G------------------------------------------|
D------------------------------------------|
A------------------------------------------|
E--55555555-2222222--4-55555555-2222-4~~~~~|

CHORUS (1:20) (2:33)
G--------------------------------------------------------------------------|
D--------------------------------------------------------------------------|
A---4-4-4-4----------4-4-4-4-----------4-4-4-4-----------(7-7-777)---------|
E-----------5-5-77-7---------5-5-00-0----------5-5-77-7---0-0-000-4-4-4~~~~|

POST CHORUS (1:37)
G---------------------------------------------|
D---same as intro but-------------------------|
A--leave out all notes------------------------|
E---up until the 3~~~~--4--4-4-4-4-3-2-2-24~~~|

OUTRO 
G------------|
D------------|
A--4-4-4-4-4-|
E------------|

not that hard of a song kiddies....but one of the greatest 
they've come up with so far!
-spanky-
Comments