Mad Caddies - Im So Alone Chords & Tabs

 

Im So Alone Chords & Tabs

Mad Caddies Chords & Tabs

Version: 1 Type: Bass Tab 0 ratings
1 star 2 stars 3 stars 4 stars 5 stars
comments

Im So Alone Bass Tab

   
I'm So Alone
Mad Caddies
Quality Soft Core
chris-  majorrocky@earthlink.net

                        SKA
INTRO

G:-----------------------------------------------------------
D:-----------------------------------------------------------
A:-----------------------------------------------------------
E:-----------------------------------------------------------

VERSE 1

G:-----------------------------------------------------
D:---------------2-5---2-5-----------------------------
A:---2-5---2-5-3-----3-------0-3---0-3---2-3-4-5-4-3-2-
E:-3-----3-----------------1-----1-----3---------------
                                                \LEAVE OFF SOMETIMES
CHORUS 1

G:-------------------------------
D:-------------------------------
A:-------------------------------
E:-10-10-7-5-3-3-7-8-8-7-5-3-7-8-

                                PUNK
VERSE 2(ALMOST LIKE CHORUS 1)

G:-------------------------
D:-------------------------
A:-5-5-2-----2-3-3-2---2-3-
E:-------3-3---------3-----

CHORUS 2

G:---------------------------
D:---------------2-----------
A:-------2-3-3-3---------3---
E;-3-3-3-----------1-1-1---3-

THIS IS A VERY FUCKED UP SONG. THINGS CHANGE ALOT

[ Tab from: http://www.guitartabs.cc/tabs/m/mad_caddies/im_so_alone_btab.html ]
{{{{{{{{{{{{{{{{{{{{{{{{{{{{{{{{{{{{{{{{{{{{{{{{{{{{{
VERSION 2
}}}}}}}}}}}}}}}}}}}}}}}}}}}}}}}}}}}}}}}}}}}}}}}}}}}}}


I'm So Alone
Mad Caddies

Basic thing for the beginning
play slow
G|-------------------------3-------------------------------------|
D|-----------3-------3-4-6---6-3----------1-------------3--------|
A|-----3-4-6---6-3-4----------------1-2-4---4-1----3--6---6-4-3--|
E|--\4----------------------------2--------------4---------------|
Fast part with horns
G--------------------------------------------------------|
D-------------------3-6----3-6---------------------------|
A----3-6-----3-6-4------4---------1-4----1-4----3-4-5-6--|
E-4-------4--------------------2------2-------4----------|
Fast part with vocals 
G--------------------------------------------------------------|
D-------------------3-6----3-6---------------------------------|
A----3-6-----3-6-4------4---------1-4----1-4----3-4-5-6-5-4-3--|
E-4-------4--------------------2------2-------4----------------|
Solos
G|--------------------------|
D|-6-6-3-----3-4-4-3--------|
A|-------4-4---------4-4----|
E|--------------------------|
Ending
G|---------------------------------|
D|---------------------------------|
A|---------4-4-4-4-----------------|
E|-4-4-4-4---------2-2-2-2-4-4-4-4-|

Figured out and written by Tom Kenny


Comments