Mad Caddies - Econoline Chords & Tabs

 

Econoline Chords & Tabs

Mad Caddies Chords & Tabs

Version: 2 Type: Bass Tab 0 ratings
1 star 2 stars 3 stars 4 stars 5 stars
comments

Econoline Bass Tab

Econoline
Mad Caddies
Duck And Cover
chris- majorrocky@earthlink.net

INTRO

G:-----------
D:-----------
A:-5---------
E:---5-2>-3>-  X2

PRE-VERSE

G:-----------
D:-----------
A:-5>---2>---
E:---5>---3>-

VERSE        SKA PART                    PUNK PART

G:-------------------------------|-------
D:--------------------4-2-----4-2|-------
A:----2-4-----2-4-2-2-----2-2----|-------
E:2-2-----2-2--------------------|-3>-5>-   X2

CHORUS

G:--------------------------------------
D:--------------------------------------
A:-2>--5>--2>---------2>--5>--2>--------
E:---5>--3>--5>-2>-3>---5>--3>--5>-2>-1>
[ Tab from: http://www.guitartabs.cc/tabs/m/mad_caddies/econoline_btab_ver_2.html ]
BRIDGE

G:--------------------------------------------------------
D:--------------------------------------------------------
A:--------------------------------------------------------
E:--------------------------------------------------------
<_________________DONT KNOW THIS PART____________________>

BRIDGE 2
G:-------------------------------------------------
D:-------------------------------------------------
A:-2-O---0-2--2-0---0-2--2-0---0>-2>--2>-0>---0>---
E:-----3----------3----------3>-------------3>--5>-

ORDER:

INTRO
PRE-VERSE
VERSE
CHORUS
BRIDGE
BRIDGE2
PRE-VERSE
VERSE
CHORUS
BRIDGE
BRIDGE2

Comments