Mad Caddies - Easy Cheese Chords & Tabs

 

Easy Cheese Chords & Tabs

Mad Caddies Chords & Tabs

Version: 1 Type: Tab 0 ratings
1 star 2 stars 3 stars 4 stars 5 stars
comments

Easy Cheese Tab

EASY CHEESE by Mad Caddies. Album : Rock the Plank (2001)                    
One of the weakest songs on this album. Good for beginners!
:
# main # X2 0:11
G-----------------------------------------------------------------|
D-----------------------------------------------------------------|
A-----------------5-5-----------------------------5-5-5-5-5-5-5-5-|
E---5-----0-0-------------1-1-----5-5-----0-0---------------------|
:
# verse # X4 !play all notes 8X!
G-----------------------------------|
D-----------------------------------|
A---0-------0-------5-------2-------|
E-----------------------------------|
:
# pre-chorus # !play all notes 6-8X!
G-----------------------------------------------------------|
D-----------------------------------3-------2-------2-------|
A-----------------------------------------------------------|
E---1-------0-------1-------0-------------------------------|
:
# chorus # *=play 7X  #=play 3X  %=pause
G-----------------------------------------------------------%----%%%|
D----*-------*-------*-------*-------*-------*-------#---#--%----%%%|
A---0-------5-------0-------7-------0-------5-------7---5---%0000%%%|
E-----------------------------------------------------------%----%%%|
:
Then play mainX2, verseX2, pre-chorus, chorusX2 and main.
:
# outro # %=pause
G--------------------------------------------%%%%%%%------------|
D--------------------------------------------%%%%%%%------------|
A-----------------5-5-------------5-5-----7-7%%%%%%%------------|
E---5-----0-0-------------1-1----------------%%%%%%%4-4-5-5\\---|
:
Easy cheese!
Tabbed by Jussi Heinonen 06.11.2002.


[ Tab from: http://www.guitartabs.cc/tabs/m/mad_caddies/easy_cheese_tab.html ]
Comments