Mad Caddies - Cup O Tea Chords & Tabs

 

Cup O Tea Chords & Tabs

Mad Caddies Chords & Tabs

Version: 2 Type: Bass Tab 0 ratings
1 star 2 stars 3 stars 4 stars 5 stars
comments

Cup O Tea Bass Tab

Cup O' Tea
Mad Cddies
Quality Soft Core
chris-  majorrocky@earthlink.net

INTRO/CHORUS

G;----------------------------------------
D:----------------------------------------
A:-77777-55555-------------77777-55555----
E:-------------55555-55555-------------5>-  X1

VERSE
[ Tab from: http://www.guitartabs.cc/tabs/m/mad_caddies/cup_o_tea_btab_ver_2.html ]
G;---------------------------------
D:---------------------------------
A:-7-7-55-4-4-4-44-----44----------
E:-----------------7-7----5-5-5-55- X5

PRE-CHORUS

G:-----------------------
D:-----------------------
A:------------5>-7-5-4-2-
E:-5--5--5--5------------ X4

ORDER:
INTRO 
VERSE
PRECHORUS
CHORUS
VERSE
PRECHORUS
CHORUS
Comments