Mad Caddies - Chevy Novacaine Chords & Tabs

 

Chevy Novacaine Chords & Tabs

Mad Caddies Chords & Tabs

Version: 1 Type: Tab 0 ratings
1 star 2 stars 3 stars 4 stars 5 stars
comments

Chevy Novacaine Tab

CHEVY NOVACAINE by Mad Caddies. Album : Rock the Plank (2001)
Lots of octave struggling in this piece. Chorus is great!
:
# intro # %=pause
G---%%%%%%%%%%%%%%%%%%%%%%%%--------%%%%%%%%%%%%%%%%%%%%%%%%--------|
D---%%%%%%%%%%%%%%%%%%%%%%%%--------%%%%%%%%%%%%%%%%%%%%%%%%--------|
A---%%%%%%%%%%%%%%%%%%%%%%%%--------%%%%%%%%%%%%%%%%%%%%%%%%--------|
E---%%%%%%%%%%%%%%%%%%%%%%%%13\\\\\\%%%%%%%%%%%%%%%%%%%%%%%%13\\\\\\|
:          
# verse # %=pause                                                    
G------%%%%%---%%%%%---%%%%%---%%%%%---%%%%%---%%%%%---%%%%%---%%%%%|
D------%%%%%---%%%%%3--%%%%%---%%%%%---%%%%%---%%%%%3--%%%%%---%%%%%|
A---555%%%%%444%%%%%-3-%%%%%---%%%%%555%%%%%444%%%%%-3-%%%%%---%%%%%|
E------%%%%%---%%%%%--1%%%%%111%%%%%---%%%%%---%%%%%--1%%%%%111%%%%%|
:
# end-verse # *=play 8X +=keep ringing 
G--------------------------------------------------------------+------------|
D----*-------*-----------------------*-------*-------*---------3--*---------|
A---5-------4------/88887888788878885-------4-------3-------1-1--1----------|
E---------------------------------------------------------------------------|
:
# bridge # *=play 8X     
G---|---|---|---|---|---|---|---|---|---|---|---|---|---|-------------------|
D---------------------------------------------------------------------------|
A-------3-33----------------------------3-33-----------------*-------*------|
E---1-10----3-301-101-105-556-601-101-10----3-301-101-105-554-------3-------|
:
Then play verse and end-verse.
:
# chorus # %=pause  *=play 8X   õ=12                                >
G------%%%%----%%%%%---%%%-------%%%---%%%%----%%%%%---%%%%----%%%-->
D------%%%%----%%%%%---%%%-------%%%---%%%%----%%%%%---%%%%----%%%-->
A------%%%%----%%%%%---%%%/õõõõ\\%%%555%%%%5555%%%%%444%%%%3333%%%/\>
E---111%%%%1111%%%%%555%%%-------%%%---%%%%----%%%%%---%%%%----%%%-->
>chorus
>-------------------------------------------------------------------|
>------------------------------------*-------*-------*-------*------|
>----*-------*-------*-------*------5-------5-------1-------3-------|
>---1-------1------/5-------5---------------------------------------|
:
Then play bridge and verse.
:
# end-verse2 # *=play 8X +=keep ringing 
G--------------------------------------------------------------+------------|
D----*-------*-----------------------*---------------*---------3--*---------|
A--/5-------4-----------------------5-------444444413-------1-1--1----------|
E-------------------1111011101110111----------------------------------------|
:
# chorus2 # %=pause  *=play 8X   õ=12  +=play 8X with pauses        >
G------%%%%----%%%%%---%%%-------%%%---%%%%----%%%%%---%%%%----%%%-->
D------%%%%3---%%%%%---%%%-------%%%---%%%%----%%%%%---%%%%----%%%-->
A------%%%%----%%%%%---%%%/õõõõ\\%%%555%%%%5555%%%%%444%%%%3333%%%/\>
E---111%%%%-111%%%%%555%%%-------%%%---%%%%----%%%%%---%%%%----%%%-->
>chorus2
>---------------------------------------------------------------------------|
>------------------------------------*-------*-------+-------+--------------|
>----*-------*-------*-----------8775-------5-------1-------3---------------|
>---1-------1------/5-------55555-----------------------------------1-------|
:
Cool!
Tabbed by Jussi Heinonen 15.10.2002.


[ Tab from: http://www.guitartabs.cc/tabs/m/mad_caddies/chevy_novacaine_tab.html ]
Comments