Mad Caddies - Bridges Chords & Tabs

 

Bridges Chords & Tabs

Mad Caddies Chords & Tabs

Version: 2 Type: Tab 0 ratings
1 star 2 stars 3 stars 4 stars 5 stars
comments

Bridges Tab

----------------------------------------------------------------------       
                         BRIDGES - Mad Caddies
----------------------------------------------------------------------

Tabbed by AJ. drlindemans1301@hotmail.com

~ = let ring
>= strum
/ = slide

Intro
G|--------------3~-------5~-------8/10--------------|
D|-----5~-------------------------------------------|
A|--------------------------------------------------|
E|--------------------------------------------------|

Verse (x3)
G|--------------------------------------------------|
D|-------------------------1>-----------------------|
A|---------------1>----------------3>---------------|
E|-------3>-----------------------------------------|
[ Tab from: http://www.guitartabs.cc/tabs/m/mad_caddies/bridges_tab_ver_2.html ]
Pre-chorus (x3)
G|--------------------------------------------------|
D|-----------------111------------------------------|
A|---------------------------111------333-----------|
E|-------333----------------------------------------|
Before chorus play
A|---5>---|

Chorus (x1)
G|------------------------------------------------------------------|
D|------------------------------------------------------------------|
A|---6>---5>-------------6>-------5>---6>---5>-------------3>---6>--|
E|---------------3>-1-3>------6>----------------3>-1-3>-------------|

Verse (x3)
Pre-chorus (x3)
Chorus (x1)
Bridge (numerous times)
G|-----------------------------|
D|-----------------------------|
A|-----------------------------|
E|-------3>-1-3>-1-3>----------|
Verse (x2)
Pre-chorus (x3)
Chorus (x1)

Any questions, corrections or comments email me.
Comments