Mad Caddies - Bridges Chords & Tabs

 

Bridges Chords & Tabs

Mad Caddies Chords & Tabs

Version: 1 Type: Tab 0 ratings
1 star 2 stars 3 stars 4 stars 5 stars
comments

Bridges Tab

   
BRIDGES by Mad Caddies. Album : Rock the Plank (2001)                     1/2
This is probably the best one on this album - the riffs are simple, but
magnificent to play. Great solo with high notes!             
A=left guitar   B=right guitar   A&B=both                     
:                                                             
# intro #A !played slightly with fingers! 
E----------------15-----15---------------------------18-----18-----18-----18->
B--17b-17---18b----18b----181518b-r181518b-r181518b----18b----18b----18b----->
G--17b-17-15----------------------------------------------------------------->
D---------------------------------------------------------------------------->
A---------------------------------------------------------------------------->
E---------------------------------------------------------------------------->
>soloA
>--------18-----20-----18-----21-----18--------20b---20-18-------------18----|
>--18br15--20p18--20p18--20p18--20p18--20p18h20------------20b---20-18---20v-|
>----------------------------------------------------------------------------|
>----------------------------------------------------------------------------|
>----------------------------------------------------------------------------|
>--------\---------SUPER-FAST-----------------/------------------------------|
:
Then play A&BverseA&BX2 (A finishes soloA first), A&Bpre-chorusA&B,
A&BchorusA&B and A&Bend-chorusA&B (without a + last note).
:
# bridge #A                                                           >
E-------------------------------------3-------3-------3--------------->
B-----------------------------------3-------1------------------------->
G---------------------------------------------------3-------2-3-2-0--->
D--------------------------------------------------------------------->
A--------------------------------------------------------------------->
E---3----------------------------------------------------------------->
# bridge #B f=play flute on a fret between notes... v=vibrato         >
E--------------------------------------------------------------------->
B--------------------------------------------------------------------->
G------------------------------/1512f13------------------------------->
D---5--------------------------/17------------------------------------>
A--------------------------------------------------------------------->
E--------------------------------------------------------------------->
>bridgeA
>-----3-------3-------3-----------------|
>---3-------1---------------------------|
>-------------------3-------2-3-2-0---0-|
>-----------------------------------3---|
>---------------------------------------|
>---------------------------------------|
>bridgeB 
>---------------------------------------|
>---------------------------------------| > Then play A&Bpre-chorusA&B and
>---v---v--12v-12v-12v-12v--------------|   A&BchorusA&B.
>---------------------------3-2---3-2---|
>-------------------------------3-----3-|
>---------------------------------------|
:
# end-chorus3 #A
E---------------------------------------|
B---------------------------------------|
G---5-------5---5-5---------------------|
D---5-------5---5-5-8-------8-------5---|
A---3-------3---3-3-6-------5-------5---|
E---3-------3---3-3-----------------3---|
# end-chorus3 #B
E---------------------------------------|
B---------------------------------------|
G---5---5-5---5-5-5---------------------|
D---5---5-5---5-5-5-8-------8-------5---|
A---3---3-3---3-3-3-6-------5-------5---|
E---3---3-3---3-3-3-6-------6-------3---|
:
Fantastic!
Tabbed by Jussi Heinonen 15.01.02


[ Tab from: http://www.guitartabs.cc/tabs/m/mad_caddies/bridges_tab.html ]
Comments