Mad Caddies - Apathetic Chords & Tabs

 

Apathetic Chords & Tabs

Mad Caddies Chords & Tabs

Version: 1 Type: Tab 0 ratings
1 star 2 stars 3 stars 4 stars 5 stars
comments

Apathetic Tab

   
APATHETIC by Mad Caddies. Album : Duck and Cover (1998)                   1/2
Very playable riffs in this one!
A=left guitar   B=right guitar   A&B=both
:
# intro #A&B  #=play 3-4X *=play 6X m=palm-muted                            >
E--------mmm-----mmm-------------mmm-----mmm-------------mmm-----mmm-------->
B--------------------#-----------------------#-----------------------#------>
G-------------------5-----------------------5----#------------------5------->
D---7\----5-7\----5-5---55-57\----5-7\----5-5---4---7\----5-7\----5-5---55-5>
A---7\---5357\---5353---23-57\---5357\---5353---5---7\---5357\---5353---23-5>
E---5\---3335\---333-------35\---3335\---333--------5\---3335\---333-------3>
>introA&B
>---/------flanger------\----------|
>----------------------------------|
>----*---*---*---*---*---*---5--575|
>---7---7---7---7---7---7---555-575|
>---0---0---0---0---0---0---535-353|
>---5---5---5---5---5---5---333----|
:
# verse #A&B *=play 6X                                              >
E---/-----palm-muted-------\---------------------------------------->
B------------------------------------------------------------------->
G----------------------------5--5----------------------------5--575->
D----*-------*-------*------555-555--*-------*-------*------555-575->
A---7-------7-------7-------535-323-7-------7-------7-------535-353->
E---5-------5-------5-------333-----5-------5-------5-------333----->
>verseA&B
>-----------------------------------|
>--------------------*-------*------|
>------------5--5---9-------9-------|
>----*------555-555-9-------9-------|
>---7-------535-323-7-------7-------|
>---5-------333---------------------|
:
# bridge #A
E-----------------------------------|
B-----------------------------------|
G---99-9-7-57-5-----9-5------5--575-|
D--------------7-777---7-777555-575-|
A---77-7-5-35-3-----7-3-----535-353-|
E--------------5-555---5-555333-----| > Then play A&BverseA&B.
# bridge #B                            
E-----------------------------------| 
B-----------------------------------|
G----------------------------5--575-|
D---77-7-77777-7-77777-7-777555-575-|
A---------------------------535-353-|
E---55-5-55555-5-55555-5-555333-----|
:
# chorus #A
E--|------|3X|------|----------------|
B--|----------------|----------------|
G--|66-6-44444-4-777|66-6-44444-4-555|
D--|----------------|-------------555|
A--|44-4-22222-2-555|44-4-22222-2-333|
E--|----------------|-------------333|
# chorus #B                            
E--|------|3X|------|----------------|
B--|----------------|----------------|
G--|-------------777|-------------555|
D--|-----55522-2-777|-----55522-2-555|
A--|44-4-55522-2-555|44-4-55522-2-333|
E--|55-5-33300-0----|55-5-33300-0-333|
:
>>>>>>>>to next page...
:
:
:
APATHETIC                                                                 2/2
:
# into-verse2 #A  #=play 3-4X *=play 6X m=palm-muted
E--------mmm-----mmm-------------mmm-----mmm---------------------------------|
B--------------------#-----------------------#-------------------------------|
G-------------------5-----------------------5----#--2-----4-----5------5--575|
D---7\----5-7\----5-5---55-57\----5-7\----5-5---4---------------------555-575|
A---7\---5357\---5353---23-57\---5357\---5353---5---0-----2-----3-----535-353|
E---5\---3335\---333-------35\---3335\---333--------------------------333----|
# into-verse2 #B  #=play 3-4X *=play 6X m=palm-muted                      
E--------mmm-----mmm-------------mmm-----mmm---------------------------------|
B--------------------#-----------------------#-------------------------------|
G-------------------5-----------------------5----#---------------------5--575|
D---7\----5-7\----5-5---55-57\----5-7\----5-5---4---7-----5-----3-----555-575|
A---7\---5357\---5353---23-57\---5357\---5353---5---------------------535-353|
E---5\---3335\---333-------35\---3335\---333--------5-----3-----1-----333----|
:
Then play A&BverseA&B and AchorusA or BchorusB.
:
# into-outro #A&B  #=play 3-4X *=play 6X m=palm-muted %=pause              
E--------mmm-----mmm-------------mmm-----mmm-----------------%%-----|
B--------------------#-----------------------#-------*-------%%-----|
G-------------------5-----------------------5----#--9-------9%%-----|
D---7\----5-7\----5-5---55-57\----5-7\----5-5---4---9-------9%%242--|
A---7\---5357\---5353---23-57\---5357\---5353---5---7-------7%%---42|
E---5\---3335\---333-------35\---3335\---333-----------------%%-----|
:
# outro #A c=pinch harmonics b=bend-up one step r=release bend      >
E--|------c------|2X|--------------|-------------------------------->
B--|-------------------------------|-------------------------------->
G--|22-2-2----------77-7-77642-2-22|99-9-96-99-9-99977-7-7-97-66-666>
D--|22-2-2--22-2-22277-7-77642-2-22|-------------------------------->
A--|00-0-0--22-2-22255-5-55420-0-00|77-7-74-77-7-77755-5-5-75-44-444>
E--|------3-00-0-000---------------|-------------------------------->
# outro #B c=pinch harmonics                                        >
E--|------c------|2X|--------------|-------------------------------->
B--|-------------------------------|----------------77-7-7-87-55-555>
G--|22-2-2----------77-7-77642-2-22|66-6-66-64-4-444---------------->
D--|22-2-2--22-2-22277-7-77642-2-22|----------------44-4-4-54-22-222>
A--|00-0-0--22-2-22255-5-55420-0-00|44-4-44-42-2-222---------------->
E--|------3-00-0-000---------------|-------------------------------->
>outroA
>-----------------------------|
>-------------------b-----b---|
>---99-9-96-99-9-9997r67644r--|
>---------------------------57|
>---77-7-74-77-7-777----------|
>-----------------------------|
>outroA
>-----------------------------|
>-----------------------------|
>---66-6-66-64-4-444----------|
>----------------------------7|
>---44-4-44-42-2-2227545424227|
>---------------------------35|
:
Now the time has come...
Tabbed by Jussi Heinonen 20.03.2003.


[ Tab from: http://www.guitartabs.cc/tabs/m/mad_caddies/apathetic_tab.html ]
Comments