Mad At Gravity - Walk Away Chords & Tabs

 

Walk Away Chords & Tabs

Mad At Gravity Chords & Tabs

Version: 3 Type: Tab 0 ratings
1 star 2 stars 3 stars 4 stars 5 stars
comments

Walk Away Tab

This is what i tab out by now... its just a view of the song

Intro/Chorus 

e---------------------------------------------------------------
b---------------------------------------------------------------
g---------------------------------------------------------------
d--7--7-7-7-7----10--10-10-10-10---12--12-12-12-12----3--3-3-3-3
a--7--7-7-7-7----10--10-10-10-10---12--12-12-12-12----3--3-3-3-3
D--7--7-7-7-7----10--10-10-10-10---12--12-12-12-12----3--3-3-3-3

Verse
[ Tab from: http://www.guitartabs.cc/tabs/m/mad_at_gravity/walk_away_tab_ver_3.html ]
e----------------------------------
b----------------------------------
g------2-------5------7-------10---
d----2-------5------7------10------
a--0-------3------5------8---------
D----------------------------------

bridge


e---------------------------------
b---------------------------------
g-12-14-12------------------------
d------------14--12-14-12---------
a---------------------------------
D---------------------------------


End

e-------------
b-------------
g-------------
d---7---------
a---7---------
D---7---------


Tab by Gabriel febles
Comments