Mad At Gravity - Walk Away Chords & Tabs

 

Walk Away Chords & Tabs

Mad At Gravity Chords & Tabs

Version: 2 Type: Tab 0 ratings
1 star 2 stars 3 stars 4 stars 5 stars
comments

Walk Away Tab

   
Author/Artist: MAD AT GRAVITY
Title: Walk away
Transcribed by: Keogh (France)
Email: keogh1977@hotmail.com

capo 1fret
D, A, D, G, B, E

----------------------------------------------------------------------------|-
-0--0-0-0-0----------0--0-0-0-0---------------------------------------------|-
-2--2-2-2-2--2-2-2---0--0-0-0-0---------2--2-2-2-2--2-2-2--0--0-0-0-0--0h2-0|-
-2--2-2-2-2--2-2-2-2-2--2-2-2-2--2-2-2--2--2-2-2-2--2-2-2--2--2-2-2-2--0-0--|-
-0--0-0-0-0--0-0-0-0h3--3-3-3-3--3-3-3--0--0-0-0-0--0-0-0--3--3-3-3-3--3-3--|-
----------------------------------------0--0-0-0-0--0-0-0--3--3-3-3-3--3-3--|-
                                                                              

------------------------------------------------------------------------------
------------------------------------------------------------------------------
-2--2-2-2-2--2-2-2-2-/-5-5-5-5--5-5-5-5-/-9-9-9-9--9-9-9-\-7-7-/-12-12-\-6-6--
------------------------------------------------------------------------------
------------------------------------------------------------------------------
------------------------------------------------------------------------------
                                                                              

-------------------------------------------|----------------------------------
-------------------------------------------|----------------------------------
-6-6-6--6-6-6-\-5-5-/-9-\-2-2-2-2-0-0h2-2-2|----------------------------------
-------------------------------------------|----------------------------------
-------------------------------------------|----------------------------------
-------------------------------------------|----------------------------------
                                                                              
[ Tab from: http://www.guitartabs.cc/tabs/m/mad_at_gravity/walk_away_tab_ver_2.html ]
------------------------------|-----------------------------------------------
-------------------------3----|-----------------------------------------------
--------4-------4----0------2-|-----------------------------------------------
----2---2---5---5--2---2----0-|-----------------------------------------------
--0---0---------------------0-|-----------------------------------------------
----------5---5-------------0-|-----------------------------------------------
                                                                              

--------------------------|---------------------------------------------------
--------------1p0---1p0---|---------------------------------------------------
--2p0-0-2p0-0-----0-----0-|---------------------------------------------------
--------------------------|----2---2-----2---2h3-----2---2-----2---2h3---2----
--------------------------|-0----0---0-0---0-------3---3---3-3---3------------
--------------------------|--------------------------------------------0---0--
                                                                              

-----------------------------------|------------------------------------------
-----------------------------------|------------------------------------------
-----------------------------------|------------------------------------------
-2-----2---2h3---2---2-----2---2h3-|------------------------------------------
-----------------------------------|------------------------------------------
---0-0---0-----3---3---3-3---3-----|------------------------------------------
                                                                              

-------------------------|------------------|---------------------------------
-------------------------|------------------|---------------------------------
-------------------------|------------------|---------------------------------
-5-7-5-7-5-------5-------|-5-7-5-7-5--------|---------------------------------
-----------7-5-7---7-5-7-|-----------7-5-7v-|---------------------------------
-------------------------|------------------|---------------------------------
Comments