Mactatus - Sonn Av Torden Chords & Tabs

 

Sonn Av Torden Chords & Tabs

Mactatus Chords & Tabs

Version: 1 Type: Tab 0 ratings
1 star 2 stars 3 stars 4 stars 5 stars
comments

Sonn Av Torden Tab

   
			      MACTÂTUS
			PROVENANCE OF CRUELTY
			    Sønn av Torden

Made by Hr. Jaegersborg of Vidsyn 

Tuning: E,A,D,G,B,E
Timing: Listen to the song for best timing.

Notation: When two guitars are listed play all guitars simultaneously.

.  - palm mute                         
"  - tremelo picking                   

--------------------------------------------------------------------------
Riff I

  Gtr. 1 
||------------------------|------------------------|--------------------||
||------------------------|------------------------|--------------------||
||----4-----------------2-|------------------------|--------------------||
||-2-----5--4--2--4--5----|----5--4--2--4--5--7--5-|-2--2224--4445--554-||
||------------------------|-3----------------------|-0--0002--2223--332-||
||------------------------|------------------------|--------------------||
   """"""""""""""""""""""""""""""""""""""""""""""""     ...   ...   ..

  Gtr. 2
||------------------------|------------------------|--------------------||
||------------------------|------------------------|--------------------||
||------------------------|------------------------|--------------------||
||-22222222222222222222222|555555555555555555555555|-2--2224--4445--554-||
||-00000000000000000000000|333333333333333333333333|-0--0002--2223--332-||
||------------------------|------------------------|--------------------||
   """"""""""""""""""""""""""""""""""""""""""""""""     ...   ...   ..


  Gtr. 1 
||------------------------|------------------------|--------------------||
||------------------------|------------------------|--------------------||
||----4-----------------2-|------------------------|--------------------||
||-2-----5--4--2--4--5----|----5--4--2--4--5--7--5-|-2--2224--4445--554-||
||------------------------|-3----------------------|-0--0002--2223--332-||
||------------------------|------------------------|--------------------||
   """"""""""""""""""""""""""""""""""""""""""""""""     ...   ...   ..

  Gtr. 2
||------------------------|------------------------|--------------------||
||------------------------|------------------------|--------------------||
||-------------4----------|------------------------|--------------------||
||-222222222222---5--4--2-|555555555555555555555555|-2--2224--4445--554-||
||-000000000000-----------|333333333333333333333333|-0--0002--2223--332-||
||------------------------|------------------------|--------------------||
   """"""""""""""""""""""""""""""""""""""""""""""""     ...   ...   ..

Riff II

Gtr. 1
||------------------------|------------------------|--------------------||
||------------------------|------------------------|--------------------||
||------------------------|------------------------|--------------------||
||-22222222222222222222222|555555555555555555555555|-2--2224--4445--554-||
||-00000000000000000000000|333333333333333333333333|-0--0002--2223--332-||
||------------------------|------------------------|--------------------||
   """"""""""""""""""""""""""""""""""""""""""""""""     ...   ...   ..
[ Tab from: http://www.guitartabs.cc/tabs/m/mactatus/sonn_av_torden_tab.html ]
Gtr. 1
||------------------------|------------------------|--------------------||
||------------------------|------------------------|--------------------||
||----4-----------------2-|------------------------|--------------------||
||-2-----5--4--2--4--5----|----5--4--2--4--5--7--5-|-2--2224--4445--554-||
||------------------------|-3----------------------|-0--0002--2223--332-||
||------------------------|------------------------|--------------------||
   """"""""""""""""""""""""""""""""""""""""""""""""     ...   ...   ..

Riff IV

  Gtr. 1 Ak. (Use delay)
||----------------|----------------|---------------|----------------||
||----------------|----------------|---------------|----------------||
||----------------|----------------|---------------|----------------||
||----------------|----------------|---------------|----------------||
||---2---2---2---2|---3---3---3---3|--2---2---2---2|---0---0---0---0||
||-0---0---0---0--|-0---0---0---0--|-0---0---0---0-|-0---0---0---0--||

Fill For Riff IV

  Gtr. 2
||----------------|----------------|---------------|----------------||
||----------------|----------------|---------------|----------------||
||----------------|----------------|---------------|----------------||
||----------------|----------------|---------------|----------------||
||-2--------------|----------------|-2-------------|----------------||
||-0--------------|----------------|-0-------------|----------------||
     Mute after strike		      Let ring to next riff


Riff V

  Gtr. 1 & 2
||----------------|----------------|---------------|----------------||
||----------------|----------------|---------------|----------------||
||----------------|----------------|---------------|----------------||
||-4---4-4-4---4-4|-5---5-5-5---5-5|-4---4-4-4--4-4|-2---2-2-2--2-2-||
||-2---2-2-2---2-2|-3---3-3-3---3-3|-2---2-2-2--2-2|-0---0-0-0--0-0-||
||----------------|----------------|---------------|----------------||

Riff VI

  Gtr. 1
||--------------------------------------------------||
||--------------------------------------------------||
||--------------------------------------------------||
||-5-----9-----5-----4-----5-----9-----7----9----10-||
||-3-----7-----3-----2-----3-----7-----5----7----8--||
||--------------------------------------------------||
   """""""""""""""""""""""""""""""""""""""""""""""""


Playlist

Riff 1		x 2
Riff 2 		x 4
Riff 1 		x 2
Riff 3		
Riff 3 + fill	
Riff 4		x 4
Riff 3
Riff 3 + fill
Riff 4 		x 4 
Riff 5		x 11 
Riff 1		x 2


	SØNN AV TORDEN

Jeg sønn av torden som vandrer blandt alver og troll
Hersker over denne skog
Der hvor intet menneske har satt sitt spor

Der hvor trollmenn og drager har rådet i all sin tid
Og de høyeste slottstårn berører himmelriket
Der hvor dragene driver sine blot

Der hvor fjelltrollet holder
sin offerfest med sine kjemper
Rister jorden som torden
Og alle de små alver gjemmer seg
i sine trygge små hjem
Mens andre taper sitt liv blant de store

Skogens lyseste slette er slik som mørkets mørke dal
Hvor kun dragene skaper lys
Og nattens krigere trer frem
mens trollmenn sprer sin trolldom
Og i enden av skogen kan man skimte fandens
sorte kappe....
Comments