Macklemore - Thrift Shop Chords & Tabs

 

Thrift Shop Chords & Tabs

Macklemore Chords & Tabs

Version: 3 Type: Tab 0 ratings
1 star 2 stars 3 stars 4 stars 5 stars
comments

Thrift Shop Tab

   
-----------------------------------------------------------------------------
                             Thrift Shop - Macklemore & Ryan Lewis
-----------------------------------------------------------------------------
Tabbed by: Riqui
E-mail: ejpeterson728@gmail.com

Tuning: Standard E (EADGBe)

The spacing between notes is a decent representation of timing

Horn / Hook
e|----------------------------11p7------------------------------------------|
B|--------9-9------------99~~------9----------------------------------------|
G|-------------8--6----------------------------------------------------------|
D|----6------------------^^--------------------------------------------------|
A|----------------------FAST-------------------------------------------------|
E|---------------------------------------------------------------------------|

Chorus
[ Tab from: http://www.guitartabs.cc/tabs/m/macklemore/thrift_shop_tab_ver_3.html ]
e|---------------------------------------------------------------------------|
B|---------------------------------------------------------------------------|
G|---------------------------------------------------------------------------|
D|---------------------------------------------------------------------------|
A|---------------------------------------------------------------------------|
E|--11--11-11--9--7--4------4-4-4--11-11-11-11--9--7--11-11------------------|

e|---------------------------------------------------------------------------|
B|---------------------------------------------------------------------------|
G|---------------------------------------------------------------------------|
D|---------------------------------------------------------------------------|
A|---------------------------------------------------------------------------|
E|--11-11--11-9-7---11-11-11-11-9-7---11-11-9-7-4-4--------------------------|

Chorus (alternate)


e|---------------------------------------------------------------------------|
B|---------------------------------------------------------------------------|
G|---------------------------------------------------------------------------|
D|---------------------------------------------------------------------------|
A|--7--7-7--5--3--------------7-7-7-7-5-3--77-------You get the idea---------|
E|----------------5----5-5-5-------------------------------------------------|



************************************

| /   slide up
| \   slide down
| h   hammer-on
| p   pull-off
| ~   vibrato
| +   harmonic
| x   Mute note
| b   Bend
| pb  Pre-bend
| br  Bend release
| pbr Pre-bend release
| brb Bend release bend

************************************
Comments