Macklemore - Fallin Chords & Tabs

 

Fallin Chords & Tabs

Macklemore Chords & Tabs

Version: 1 Type: Tab 0 ratings
1 star 2 stars 3 stars 4 stars 5 stars
comments

Fallin Tab

   
Tuning:

Guitar 1 
(Intro, goes throughout the entire song)
e|---------------------------------------------------------------------------|
B|---------------------------------------------------------------------------|
G|---------------------------------------------------------------------------|
D|--7-7----11--11-----7--7---9-9---------------------------------------------|
A|9--9----9--9----7/9--9---9--9----------------------------------------------|
E|---------------------------------------------------------------------------|
[ Tab from: http://www.guitartabs.cc/tabs/m/macklemore/fallin_tab.html ]
Guitar 2
Play these chords during the chorus (Listen to the song for rythm)
e|7-------9------------------------------------------------------------------|
B|7--and--7------------------------------------------------------------------|
G|7-------7------------------------------------------------------------------|
D|---------------------------------------------------------------------------|
A|---------------------------------------------------------------------------|
E|---------------------------------------------------------------------------|




************************************

| /   slide up
| \   slide down
| h   hammer-on
| p   pull-off
| ~   vibrato
| +   harmonic
| x   Mute note
| b   Bend
| pb  Pre-bend
| br  Bend release
| pbr Pre-bend release
| brb Bend release bend

************************************
Comments