Machines Of Loving Grace - Ancestor Cult Chords & Tabs

 

Ancestor Cult Chords & Tabs

Machines Of Loving Grace Chords & Tabs

Version: 2 Type: Bass Tab 0 ratings
1 star 2 stars 3 stars 4 stars 5 stars
comments

Ancestor Cult Bass Tab

Song Title: Ancestor Cult
Artist: Machines of Loving Grace
----------------------------------------------
[ Tab from: http://www.guitartabs.cc/tabs/m/machines_of_loving_grace/ancestor_cult_btab_ver_2.html ]
Intro & Riff1
G -------------------------------------
D -------------------------------------
A ---------1--3------------------6-----
E -3-----3------1----3--0-----3--------
Riff2
G -------------------------------------
D -------------------------------------
A --------5-7--------------------------
E -5----5--------5-3-1-----6-6---------

Submitted by:  Derek Enos (ao228@osfn.rhilinet.gov)
Comments