Machine The - The Girl Chords & Tabs

 

The Girl Chords & Tabs

Machine The Chords & Tabs

Version: 1 Type: Tab 0 ratings
1 star 2 stars 3 stars 4 stars 5 stars
comments

The Girl Tab

   
#----------------------------------PLEASE NOTE---------------------------------#
#This file is the author's own work and represents their interpretation of the #
#song. You may only use this file for private study, scholarship, or research. #
#------------------------------------------------------------------------------##

                                    THE GIRL
                           As recorded by The Machine


Gtr II (E A D G B E) - 'Acoustic'
Gtr III (E A D G B E) - 'Electric'

   Intro
   
    Gtr II
||--11-------11--12-------12--10-------10--9------9---||
||o-----0------------0------------0-----------0------o||
||--11----11-----12----12-----10----10-----9----9-----||
||----------------------------------------------------||
||o--------------------------------------------------o||
||----------------------------------------------------||


   Pre-Verse
||--11------11--12------12--14------14--12------12--||
||o----0-----------0-----------0-----------0-------o||
||--11---11-----12---12-----14---14-----12---12-----||
||--------------------------------------------------||
||o------------------------------------------------o||
||--------------------------------------------------||

[ Tab from: http://www.guitartabs.cc/tabs/m/machine_the/the_girl_tab.html ]
  Verse
   Gtrs II, III
||-11-------11--12--|------12--14-------|-14--12-------12--||
||-----0------------|-0------------0----|---------0--------||
||-11----11-----12--|---12-----14----14-|-----12----12-----||
||------------------|-------------------|------------------||
||------------------|-------------------|------------------||
||------------------|-------------------|------------------||


||-11-------11--12--|------12--14-------|-14--12-------12--||
||-----0------------|-0------------0----|---------0--------||
||-11----11-----12--|---12-----14----14-|-----12----12-----||
||------------------|-------------------|------------------||
||------------------|-------------------|------------------||
||------------------|-------------------|------------------||


||-11-------11--12--|------12--14-------|-14--12-------12--||
||-----0------------|-0------------0----|---------0--------||
||-11----11-----12--|---12-----14----14-|-----12----12-----||
||------------------|-------------------|------------------||
||------------------|-------------------|------------------||
||------------------|-------------------|------------------||


||-11-------11--12--|------12--14-------|-14--12-------12--||
||-----0------------|-0------------0----|---------0--------||
||-11----11-----12--|---12-----14----14-|-----12----12-----||
||------------------|-------------------|------------------||
||------------------|-------------------|------------------||
||------------------|-------------------|------------------||


   Pre-Chorus
||--11------11--12------12--7-----7--9-----9--||
||o----0-----------0----------0--------0-----o||
||--11---11-----12---12-----7---7----9---9----||
||--------------------------------------------||
||o------------------------------------------o||
||--------------------------------------------||



Comments