Machine Head - Message In A Bottle Chords & Tabs

 

Message In A Bottle Chords & Tabs

Machine Head Chords & Tabs

Version: 1 Type: Tab 0 ratings
1 star 2 stars 3 stars 4 stars 5 stars
comments

Message In A Bottle Tab

   
Song: Message in a bottle
Artist: Machine Head/Police
Album: The Burning Red

Tuning E-A-D-G-B-E
[ Tab from: http://www.guitartabs.cc/tabs/m/machine_head/message_in_a_bottle_tab.html ]
---------------------------------------------------------------------------------
---------------------------------------------------------------------------------
-----10------------8-------------------------------------------------------------
---8-------11----6-------8h9-----------------------------------------------------
-6-------9-----4-------6---------------------------------------------------------
-------7-------------4-----------------------------------------------------------
 Intro                                                                        
------------------------------------------------------------------------------
------------------------------------------------------------------------------
------------------------------------------------------------------------------
------------------------------------------------------------------------------
--9-9-9-9-9-9-9-9-9-2-2-2-4-4-4-4-4-------------------------------------------
--7-7-7-7-7-7-7-7-7-0-0-0-2-2-2-2-2-------------------------------------------
 Pre Chorus             All P.M.        play 2x                               
------------------------------------------------------------------------------
------------------------------------------------------------------------------
------------------------------------------------------------------------------
------------------------------------------------------------------------------
-6-6-6-6-6-6-6-6-2-2-2-2-2-2-2-2----------------------------------------------
-4-4-4-4-4-4-4-4-0-0-0-0-0-0-0-0----------------------------------------------
                        All P.M.        Play 3x                               
-6--------------------------------------7-------------------------------------
-7--------------------------------------7-------------------------------------
-8--------------------------------------8-------------------------------------
-8--------------------------------------9-------------------------------------
-6--------------------------------------9-------------------------------------
----------------------------------------7-------------------------------------
 verse
------------------------------------------------------------------------------ 
------------------------------------------------------------------------------
------------------------------------------------------------------------------
--8-8-8-------6-6-6-----------------------------------------------------------
--6-6-6-9-9-9-4-4-4-6-6-6-6---------------------------------------------------
--------7-7-7-------4-4-4-4---------------------------------------------------
 fills                                       ------------------------------------------------------------------------------
-7b--------7--5---7b---------7--5--5/7----------------------------------------
------------------------------------------------------------------------------
------------------------------------------------------------------------------
------------------------------------------------------------------------------
------------------------------------------------------------------------------

---------------/9--7--5--4-4/5-4----------------2--4--5-/7--5--4--------------
-7b------7r--5-------------------5------2--4--5-------------------------------
------------------------------------------------------------------------------
------------------------------------------------------------------------------
------------------------------------------------------------------------------
------------------------------------------------------------------------------
 Fill 2 - Played over chorus            .           

Bozzman182@hotmail.com

Comments