Machine Head - Imperium Chords & Tabs

 

Imperium Chords & Tabs

Machine Head Chords & Tabs

Version: 4 Type: Tab 0 ratings
1 star 2 stars 3 stars 4 stars 5 stars
comments

Imperium Tab

   
Imperium- Machine Head

Tabbed by orskar

im pretty sure about the whole song except for the intro which is close to it anyway.
this the the dropped-d version for those whole dont want to have to tune to drop c


/=SLIDE
^=1/2 BEND
)= WHOLE NOTE BEND
///=VIBRATO
*=LEFT HAND PALM MUTE
p.m= RIGHT HAND PALM MUTE
H= HAMMER ON
P= PULL OFF
"=NATURAL HARMONICS
//=TREMELO PICKING

Intro PART A
(dropped-d)

Gtr 1                               Gtr 2
e--------------------               e----------------------    
B--------------------               B----------------------
G--------------------               G--9-9--10-10--7-7---7-    
D-1/2--4/2--1/2--4/2-               D-7-7--7--7---5-5---7--  
A-1/2--4/2--1/2--4/2-               A------------------7---    
D--------------------               D----------------------
                                                       """ 
Intro part B

e------------------------
B----8-8-8-8/6-6-6-6-----
G----------------------7-
D---------------------7--
A-0-2----------------7---
D-0-2--------------------
                     """  

Intro Part c
Gtr 1                                Gtr2
e------------------------------      e--------------------------------   
B------------------------------      B--------------2//---3//---2//---
G------------------------------      G--------------------------------
D------------------------------      D--------------------------------
A-2222-2222-2222-2222-22222222-      A--------------------------------
D-2222-2222-2222-2222-22222222-      D--------------------------------

Verse Part 1                 1st time                2nd time
e--------------------------- --------------------)-  ---------------------
B--------------------------- -------------------7--  --------------------- 
G--------------------------- ----------------------  -----------------4-2-
D------****------****------- -----****------****---  ---------444-222-----
A--4P2-2222--2P0-0000--0-00- -4P2-2222--2P0-0000---  -444-222-------------
D--------------------------- ----------------------  ---------------------
                                                     P.M__________________|  

Verse part 2
e------------------------------
B------------------------------
G------------------------------
D-3-5--3-5--3-5--2-4--2-4--2-4-
A-3-5--3-5--3-5--2-4--2-4--2-4-
D-3-5--3-5--3-5--2-4--2-4--2-4-
   H    H    H    H    H    H

Pre chorus
e--------------------------
B--------------------------
G--------------------------
D--------------------------
A-0-2--0-2--0-2--0-2-2-2-2-
D-0-2--0-2--0-2--0-2-2-2-2-
                   P.M___|

Chorus
e----0------0------0------0------0------0----0-------------
B----------------------------------------------------------
G----------------------------------------------------------
D-0-2--2-3-2--2-0-2--2-3-2--2-0-2--2-3-2--2-0--5-5-0-3-4-4-
A-0-2--2-3-2--2-0-2--2-3-2--2-0-2--2-3-2--2-0--5-5-0-3-4-4-
D-0-2--2-3-2--2-0-2--2-3-2--2-0-2--2-3-2--2-0--5-5-0-3-4-4-

Bridge part1
e--------------
B--------------
G--------------
D--------------
A--------9/12--
D-9/0----------

[ Tab from: http://www.guitartabs.cc/tabs/m/machine_head/imperium_tab_ver_4.html ]
Bridge part 2
e-----------------------------
B-----------------------------
G-----------------------------
D-----------------------------
A-0-1-1P0-1P0-1-1-5-0-3-0-1-0-
D-0-1-1P0-1P0-1-1-5-0-3-0-1-0-

Bridge part 3
e-------------------------------------------------
B-------------------------------------------------
G-------------------------------------------------
D-------------------------------------------------
A-0H1P0-0H1P0-0H1P0-0H1P0-0H1P0-0H1P0-1H2P1-2H3P2-
D-0H1P0-0H1P0-0H1P0-0H1P0-0H1P0-0H1P0-1H2P1-2H3P2-

e-------------------------------------
B-------------------------------------
G-------------------------------------
D-------------------------------------
A-0H1P0-0H1P0-0H1P0-0H1P0-5-0-3-0-1-0-
D-0H1P0-0H1P0-0H1P0-0H1P0-5-0-3-0-1-0-

Solo
Gtrt1                  Gtr2
e-------------         e------------
B-------------         B------------
G-7--9--11-12-         G-9--7--5--4-
D-5--7--9--10-         D-7--5--3--2-
A-5--7--9--10-         A-7--5--3--2-
D-------------         D------------

(gTR 2 PLAYS CHORDS)
Gtr1
c#5                          F#5
e-------------------------------------------------------------
B-------7-5-----------7-5-----------5-3----------------5-3----
G-66-44----4-66--6-44----4-6--44-22----2-4--4-6--44-22----2-4-
D-------------------------------------------------------------
A-------------------------------------------------------------
D-------------------------------------------------------------
  PM__________________________________________________________

 A5 (1.2.3.)                    (4.)
e-----------------------     e----------------------------------------
B-------9p7-7p5---------     B--12p10p8p7--10p8p7p5--8P7P5P3--7P5P3P2-
G-44-22---------9p7-7p5-     G----------------------------------------
D-----------------------     D----------------------------------------
A-----------------------     A----------------------------------------
D-----------------------     D----------------------------------------
  PM____________________|


Outro
gTR1
e----------------------------------------------------------------
B----------------------------------------------------------------
G----------------------------------------------------------------X2
D----------------------------------------------------------------
A-0-2-22--0-2-22--0-2-22--555555-0-2-22--0-2-22--0-2-22--555555--
D-0-2-22--0-2-22--0-2-22--555555-0-2-22--0-2-22--0-2-22--555555--

THEN...
e-----------------------------------------------------------------
B-----------------------------------------------------------------
G-----------------------------------------------------------------
D-----------------------------------------------------------------X2
A-0-0-0-0--0-2^-0-0-0-0--0-2^-0-0-0-0--0-2^-0-0-0-0--5-5-5-0-0-0--
D-0-0-0-0--0-2^-0-0-0-0--0-2^-0-0-0-0--0-2^-0-0-0-0--5-5-5-0-0-0--
  P.M____|      P.m____|      P.M____|      P.M____|       P.M__|

gTR2
e------------
B---2///-----
G------------
D------------
A------------
D------------

Order:
Intro part A X2
Intro part B X8
iNTRO PART C X2
Verse part 1 X2
VERSE PART 2 X1
VERSE PART 1 X1
VERSE PART 2 X1
Pre chorus   X1
chorus       X2
iNTRO PART C X2
VERSE PART 1 X2
verse part 2 X1
VERSE PART 1 X1
VERSE PART 2 X1
PRE CHORUS   X1
CHORUS       X2
BRIDGE PART1 X1
BRIDGE PART2 X2
Bridge part3 X2
BRIDGE PART3 X2(dont play high note of the chord)
SOLO
Outro        
iNTRO PART B X4
Comments