Machine Head - Imperium Chords & Tabs

 

Imperium Chords & Tabs

Machine Head Chords & Tabs

Version: 1 Type: Tab 0 ratings
1 star 2 stars 3 stars 4 stars 5 stars
comments

Imperium Tab

   
Artist - Machine Head
Song - Imperium
Album - Through the Ashes of Empires
Tuning – Low to High – B-F#-B-E-G#-C#
Tabbed by – Riffmeister General (Meeky001@hotmail.com)

Tab Guide
       / - Slide Up
       \ - Slide Down
       * - Natural Harmonic
       ^ - Artificial (Pinched) Harmonic
       p – Pull-off
       h – Hammer-on
     (#)– Ghost Note
   PM. .– Palm Muted (Where dots occur)
     Bu – Bend Up

This tab is for both guitar parts to this song, all bars are set out so you can read both guitar parts easily to play one or the other. This should take about 12 pages to print.

Intro
(Gtr. 1)
C#|---------------------------------------|---------------------------------------|
G#|---------------------------------------|---------------------------------------|
E |---------------------------------------|---------------------------------------|
B |-4/5-Let Ring--------------------------|-7\5-Let Ring--------------------------|
F#|-5/7-----------------------------------|-8\7-----------------------------------|
B |---------------------------------------|---------------------------------------|

C#|---------------------------------------|---------------------------------------|
G#|---------------------------------------|---------------------------------------|
E |---------------------------------------|---------------------------------------|
B |-4/5-Let Ring--------------------------|-7\5-Let Ring--------------------------|
F#|-5/7-----------------------------------|-8\7-----------------------------------|
B |---------------------------------------|---------------------------------------|

C#|---------------------------------------|---------------------------------------|
G#|---------------------------------------|---------------------------------------|
E |---------------------------------------|---------------------------------------|
B |-4/5-Let Ring--------------------------|-7\5-Let Ring--------------------------|
F#|-5/7-----------------------------------|-8\7-----------------------------------|
B |---------------------------------------|---------------------------------------|

C#|---------------------------------------|---------------------------------------|
G#|---------------------------------------|---------------------------------------|
E |---------------------------------------|---------------------------------------|
B |-4/5-Let Ring--------------------------|-7\5-Let Ring--------------------------|
F#|-5/7-----------------------------------|-8\7-----------------------------------|
B |---------------------------------------|---------------------------------------|

(Gtr. 2)
C#|---------------------------------------|---------------------------------------|
G#|---------------------------------------|---------------------------------------|
E |---------------------------------------|---------------------------------------|
B |---------------------------------------|---------------------------------------|
F#|---------------------------------------|---------------------------------------|
B |---------------------------------------|---------------------------------------|

C#|---------------------------------------|---------------------------------------|
G#|---------------------------------------|---------------------------------------|
E |---------------------------------------|---------------------------------------|
B |---------------------------------------|---------------------------------------|
F#|---------------------------------------|---------------------------------------|
B |---------------------------------------|---------------------------------------|

C#|---------------------------------------|---------------------------------------|
G#|---------------------------------------|---------------------------------------|
E |-----9--------9--------9---------7*-5*-|-----9--------9--------9---------7*-5*-|
B |---9---9---10---10---8---8----5*-------|---9---9---10---10---8---8----5*-------|
F#|-7-------7---------7-------7\----------|-7-------7---------7-------7\----------|
B |---------------------------------------|---------------------------------------|

C#|---------------------------------------|---------------------------------------|
G#|---------------------------------------|---------------------------------------|
E |-----9--------9--------9---------7*-5*-|-----9--------9--------9---------7*-5*-|
B |---9---9---10---10---8---8----5*-------|---9---9---10---10---8---8----5*-------|
F#|-7-------7---------7-------7\----------|-7-------7---------7-------7\----------|
B |---------------------------------------|---------------------------------------|

Heavier Intro (Gtr. 1)
C#|---------------------------------------|---------------------------------------|
G#|---------------------------------------|---------------------------------------|
E |---------------------------------------|---------------------------------------|
B |-0-2-----------------------------------|-0-2-----------------------------------|
F#|-0-2-Let Ring--------------------------|-0-2-Let Ring--------------------------|
B |-0-2-----------------------------------|-0-2-----------------------------------|

C#|---------------------------------------|---------------------------------------|
G#|---------------------------------------|---------------------------------------|
E |---------------------------------------|---------------------------------------|
B |-0-2-----------------------------------|-0-2-----------------------------------|
F#|-0-2-Let Ring--------------------------|-0-2-Let Ring--------------------------|
B |-0-2-----------------------------------|-0-2-----------------------------------|

(Gtr. 2)
C#|---------------------------------------|---------------------------------------|
G#|--------x/13-13-13\11-11-11\-----------|--------x/13-13-13\11-11-11\-----------|
E |------------------------------------5*-|------------------------------------5*-|
B |-0-2----x/10-10-10\-8--8--8\--5*-5*----|-0-2----x/10-10-10\-8--8--8\--5*-5*----|
F#|-0-2-----------------------------------|-0-2-----------------------------------|
B |-0-2-----------------------------------|-0-2-----------------------------------|

C#|---------------------------------------|---------------------------------------|
G#|--------x/13-13-13\11-11-11\-----------|--------x/13-13-13\11-11-11\-----------|
E |------------------------------------5*-|------------------------------------5*-|
B |-0-2----x/10-10-10\-8--8--8\--5*-5*----|-0-2----x/10-10-10\-8--8--8\--5*-5*----|
F#|-0-2-----------------------------------|-0-2-----------------------------------|
B |-0-2-----------------------------------|-0-2-----------------------------------|

Double Time Feel – w/quick burst drumming (Gtr. 1)
C#|---------------------------------------|---------------------------------------|
G#|---------------------------------------|---------------------------------------|
E |------------------------------------5*-|------------------------------------5*-|
B |-0-2--------------------------5*-5*----|-0-2--------------------------5*-5*----|
F#|-0-2-Let Ring--------------------------|-0-2-Let Ring--------------------------|
B |-0-2-----------------------------------|-0-2-----------------------------------|

C#|---------------------------------------|---------------------------------------|
G#|---------------------------------------|---------------------------------------|
E |------------------------------------5*-|------------------------------------5*-|
B |-0-2--------------------------5*-5*----|-0-2--------------------------5*-5*----|
F#|-0-2-Let Ring--------------------------|-0-2-Let Ring--------------------------|
B |-0-2-----------------------------------|-0-2-----------------------------------|

(Gtr. 2)
C#|---------------------------------------|---------------------------------------|
G#|--------x/13-13-13\11-11-11\-----------|--------x/13-13-13\11-11-11\-----------|
E |------------------------------------5*-|------------------------------------5*-|
B |-0-2----x/10-10-10\-8--8--8\--5*-5*----|-0-2----x/10-10-10\-8--8--8\--5*-5*----|
F#|-0-2-----------------------------------|-0-2-----------------------------------|
B |-0-2-----------------------------------|-0-2-----------------------------------|

C#|---------------------------------------|---------------------------------------|
G#|--------x/13-13-13\11-11-11\-----------|--------x/13-13-13\11-11-11\-----------|
E |------------------------------------5*-|------------------------------------5*-|
B |-0-2----x/10-10-10\-8--8--8\--5*-5*----|-0-2----x/10-10-10\-8--8--8\--5*-5*----|
F#|-0-2-----------------------------------|-0-2-----------------------------------|
B |-0-2-----------------------------------|-0-2-----------------------------------|
Let the last harmonic ring on into the Machine Gun riff.

Machine Gun Riff (w/Palm Muting)
C#|---------------------------------------------------------|
G#|---------------------------------------------------------|
E |---------------------------------------------------------|
B |---------------------------------------------------------|
F#|---------------------------------------------------------|
B |-0-2-2-2---2-2-2-2---2-2-2-2---2-2-2-2---2-2-2-2-2-2-2-2-|

C#|---------------------------------------------------------|
G#|---------------------------------------------------------|
E |---------------------------------------------------------|
B |---------------------------------------------------------|
F#|---------------------------------------------------------|
B |-0-2-2-2---2-2-2-2---2-2-2-2---2-2-2-2---0-0-2-2-3-3-2-2-|

C#|---------------------------------------------------------|
G#|---------------------------------------------------------|
E |---------------------------------------------------------|
B |---------------------------------------------------------|
F#|---------------------------------------------------------|
B |-0-2-2-2---2-2-2-2---2-2-2-2---2-2-2-2---2-2-2-2-2-2-2-2-|

C#|---------------------------------------------------------|
G#|---------------------------------------------------------|
E |---------------------------------------------------------|
B |---------------------------------------------------------|
F#|---------------------------------------------------------|
B |-0-2-2-2---2-2-2-2---2-2-2-2---2-2-2-2-------------------|

(Gtr. 2)
C#|---------------------------------------------------------|
G#|---------------------------------------------------------|
E |-5* Ringing from intro-----------------------------------|
B |---------------------------------------------------------|
F#|---------------------------------------------------------|
B |---------------------------------------------------------|

C#|---------------------------------------------------------|
G#|---------------------------------------------------------|
E |-(5*)----------------------------------------------------|
B |---------------------------------------------------------|
F#|-----------------------------------------0-0-2-2-3-3-2-2-|
B |-----------------------------------------0-0-2-2-3-3-2-2-|
                                          PM. . . . . . . .

C#|-------------------------------------------------------------|
G#|-------------------------------------------------------------|
E |-9-9-9-9-9-9-9-9-9-9-9-9-9-9-9-9-9-9-9-9-9-9-9-9/10-10-10-10-|
B |-------------------------------------------------------------|
F#|-7-7-7-7-7-7-7-7-7-7-7-7-7-7-7-7-7-7-7-7-7-7-7-7/-8--8--8--8-|
B |-------------------------------------------------------------|

C#|---------------------------------------------|
G#|---------------------------------------------|
E |-/21-21-21-21-21-21-21-21-21-21-21-21-21-21\-|
B |---------------------------------------------|
F#|-/19-19-19-19-19-19-19-19-19-19-19-19-19-19\-|
B |---------------------------------------------|

Main Riff (Both Guitars)
C#|---------------------------------|------------------------|
G#|---------------------------------|------------------------|
E |---------------------------------|------------------------|
B |-2p0-----------------------------|-2p0--------------------|
F#|-------------5p3-----------------|-------------5p3-----3^-|
B |-----2-2-2-2-----2-2-2-2-5p2-2-2-|-----2-2-2-2-----2-2----|
PM      . . . .     . . . .     . .       . . . .     . .

C#|---------------------------------|---------------------------------|
G#|---------------------------------|---------------------------------|
E |---------------------------------|-------------------------7-7-4-4-|
B |-2p0-----------------------------|-3-3-3-0-0-0-6-6-6-0-0-0---------|
F#|-------------5p3-----------------|---------------------------------|
B |-----2-2-2-2-----2-2-2-2-5p2-2-2-|---------------------------------|
PM      . . . .     . . . .     . .       

C#|---------------------------------|------------------------|
G#|---------------------------------|------------------------|
E |---------------------------------|------------------------|
B |-2p0-----------------------------|-2p0--------------------|
F#|-------------5p3-----------------|-------------5p3-----3^-|
B |-----2-2-2-2-----2-2-2-2-5p2-2-2-|-----2-2-2-2-----2-2----|
PM      . . . .     . . . .     . .       . . . .     . .

C#|---------------------------------|---------------------------------|
G#|---------------------------------|---------------------------------|
E |---------------------------------|-------------------------7-7-4-4-|
B |-2p0-----------------------------|-3-3-3-0-0-0-6-6-6-0-0-0---------|
F#|-------------5p3-----------------|---------------------------------|
B |-----2-2-2-2-----2-2-2-2-5p2-2-2-|---------------------------------|
PM      . . . .     . . . .     . . 

Verse (Both Guitars)
C#|---------------------------------|------------------------|
G#|---------------------------------|------------------------|
E |---------------------------------|------------------------|
B |-2p0-----------------------------|-2p0--------------------|
F#|-------------5p3-----------------|-------------5p3-----3^-|
B |-----2-2-2-2-----2-2-2-2-5p2-2-2-|-----2-2-2-2-----2-2----|
PM      . . . .     . . . .     . .       . . . .     . .

C#|---------------------------------|---------------------------------|
G#|---------------------------------|---------------------------------|
E |---------------------------------|-------------------------7-7-4-4-|
B |-2p0-----------------------------|-3-3-3-0-0-0-6-6-6-0-0-0---------|
F#|-------------5p3-----------------|---------------------------------|
B |-----2-2-2-2-----2-2-2-2-5p2-2-2-|---------------------------------|
PM      . . . .     . . . .     . .

C#|---------------------------------|------------------------|
G#|---------------------------------|------------------------|
E |---------------------------------|------------------------|
B |-2p0-----------------------------|-2p0--------------------|
F#|-------------5p3-----------------|-------------5p3-----3^-|
B |-----2-2-2-2-----2-2-2-2-5p2-2-2-|-----2-2-2-2-----2-2----|
PM      . . . .     . . . .     . .       . . . .     . .

C#|---------------------------------|---------------------------------|
G#|---------------------------------|---------------------------------|
E |---------------------------------|-------------------------7-7-4-4-|
B |-2p0-----------------------------|-3-3-3-0-0-0-6-6-6-0-0-0---------|
F#|-------------5p3-----------------|---------------------------------|
B |-----2-2-2-2-----2-2-2-2-5p2-2-2-|---------------------------------|
PM      . . . .     . . . .     . .

Mid-Verse Break (Both Guitars)
C#|-----------------------------|-----------------------------|
G#|-----------------------------|-----------------------------|
E |-9\7-7-7---9\7-7-7---9\7-7-7-|-7\5-5-5---7\5-5-5---7\5-5-5-|
B |-9\7-7-7---9\7-7-7---9\7-7-7-|-7\5-5-5---7\5-5-5---7\5-5-5-|
F#|-7\5-5-5---7\5-5-5---7\5-5-5-|-5\3-3-3---5\3-3-3---5\3-3-3-|
B |-----------------------------|-----------------------------|

Verse (Both Guitars)
C#|---------------------------------|------------------------|
G#|---------------------------------|------------------------|
E |---------------------------------|------------------------|
B |-2p0-----------------------------|-2p0--------------------|
F#|-------------5p3-----------------|-------------5p3-----3^-|
B |-----2-2-2-2-----2-2-2-2-5p2-2-2-|-----2-2-2-2-----2-2----|
PM      . . . .     . . . .     . .       . . . .     . .

C#|---------------------------------|---------------------------------|
G#|---------------------------------|---------------------------------|
E |---------------------------------|-------------------------7-7-4-4-|
B |-2p0-----------------------------|-3-3-3-0-0-0-6-6-6-0-0-0---------|
F#|-------------5p3-----------------|---------------------------------|
B |-----2-2-2-2-----2-2-2-2-5p2-2-2-|---------------------------------|
PM      . . . .     . . . .     . .

End Verse (Both Guitars)
C#|-----------------------------|-----------------------------|
G#|-----------------------------|-----------------------------|
E |-9\7-7-7---9\7-7-7---9\7-7-7-|-7\5-5-5---7\5-5-5---7\5-5-5-|
B |-9\7-7-7---9\7-7-7---9\7-7-7-|-7\5-5-5---7\5-5-5---7\5-5-5-|
F#|-7\5-5-5---7\5-5-5---7\5-5-5-|-5\3-3-3---5\3-3-3---5\3-3-3-|
B |-----------------------------|-----------------------------|

Pre-Chorus (Both Guitars)
C#|-----------------------------------|
G#|-----------------------------------|
E |-----------------------------------|
B |-0-2---3-2---0-2---2-3-3-3-3-3-3-3-|
F#|-0-2---3-2---0-2---2-3-3-3-3-3-3-3-|
B |-0-2---3-2---0-2---2-3-3-3-3-3-3-3-|
PM  .     .     .     . . . . . . . .

Chorus
C#|-----------------------------------------------------------------------|
G#|-----------------------------------------------------------------------|
E |-----5*-------5*-------5*-------5*-------5*-------5*-------------------|
B |-0-2----2-3-2----2-0-2----2-3-2----2-0-2----2-3-2----2-0-8-8-5-5-6-6-3-|
F#|-0-2----2-3-2----2-0-2----2-3-2----2-0-2----2-3-2----2-0-8-8-5-5-6-6-3-|
B |-0-2----2-3-2----2-0-2----2-3-2----2-0-2----2-3-2----2-0-8-8-5-5-6-6-3-|

C#|-----------------------------------------------------------------------|
G#|-----------------------------------------------------------------------|
E |-----5*-------5*-------5*-------5*-------5*-------5*-------------------|
B |-0-2----2-3-2----2-0-2----2-3-2----2-0-2----2-3-2----2-0-8-8-5-5-6-6-3-|
F#|-0-2----2-3-2----2-0-2----2-3-2----2-0-2----2-3-2----2-0-8-8-5-5-6-6-3-|
B |-0-2----2-3-2----2-0-2----2-3-2----2-0-2----2-3-2----2-0-8-8-5-5-6-6-3-|

Machine Gun Riff
C#|---------------------------------------------------------|
G#|---------------------------------------------------------|
E |---------------------------------------------------------|
B |---------------------------------------------------------|
F#|---------------------------------------------------------|
B |-0-2-2-2---2-2-2-2---2-2-2-2---2-2-2-2---2-2-2-2-2-2-2-2-|
PM  . . . .   . . . .   . . . .   . . . .   . . . . . . . . 

C#|---------------------------------------------------------|
G#|---------------------------------------------------------|
E |---------------------------------------------------------|
B |---------------------------------------------------------|
F#|---------------------------------------------------------|
B |-0-2-2-2---2-2-2-2---2-2-2-2---2-2-2-2-------------------|
PM  . . . .   . . . .   . . . .   . . . . 

Verse (Both Guitars)
C#|---------------------------------|------------------------|
G#|---------------------------------|------------------------|
E |---------------------------------|------------------------|
B |-2p0-----------------------------|-2p0--------------------|
F#|-------------5p3-----------------|-------------5p3-----3^-|
B |-----2-2-2-2-----2-2-2-2-5p2-2-2-|-----2-2-2-2-----2-2----|
PM      . . . .     . . . .     . .       . . . .     . .

C#|---------------------------------|---------------------------------|
G#|---------------------------------|---------------------------------|
E |---------------------------------|-------------------------7-7-4-4-|
B |-2p0-----------------------------|-3-3-3-0-0-0-6-6-6-0-0-0---------|
F#|-------------5p3-----------------|---------------------------------|
B |-----2-2-2-2-----2-2-2-2-5p2-2-2-|---------------------------------|
PM      . . . .     . . . .     . .

C#|---------------------------------|------------------------|
G#|---------------------------------|------------------------|
E |---------------------------------|------------------------|
B |-2p0-----------------------------|-2p0--------------------|
F#|-------------5p3-----------------|-------------5p3-----3^-|
B |-----2-2-2-2-----2-2-2-2-5p2-2-2-|-----2-2-2-2-----2-2----|
PM      . . . .     . . . .     . .       . . . .     . .

C#|---------------------------------|---------------------------------|
G#|---------------------------------|---------------------------------|
E |---------------------------------|-------------------------7-7-4-4-|
B |-2p0-----------------------------|-3-3-3-0-0-0-6-6-6-0-0-0---------|
F#|-------------5p3-----------------|---------------------------------|
B |-----2-2-2-2-----2-2-2-2-5p2-2-2-|---------------------------------|
PM      . . . .     . . . .     . .
[ Tab from: http://www.guitartabs.cc/tabs/m/machine_head/imperium_tab.html ]
Mid-Verse Break (Both Guitars)
C#|-----------------------------|-----------------------------|
G#|-----------------------------|-----------------------------|
E |-9\7-7-7---9\7-7-7---9\7-7-7-|-7\5-5-5---7\5-5-5---7\5-5-5-|
B |-9\7-7-7---9\7-7-7---9\7-7-7-|-7\5-5-5---7\5-5-5---7\5-5-5-|
F#|-7\5-5-5---7\5-5-5---7\5-5-5-|-5\3-3-3---5\3-3-3---5\3-3-3-|
B |-----------------------------|-----------------------------|

Verse (Both Guitars)
C#|---------------------------------|------------------------|
G#|---------------------------------|------------------------|
E |---------------------------------|------------------------|
B |-2p0-----------------------------|-2p0--------------------|
F#|-------------5p3-----------------|-------------5p3-----3^-|
B |-----2-2-2-2-----2-2-2-2-5p2-2-2-|-----2-2-2-2-----2-2----|
PM      . . . .     . . . .     . .       . . . .     . .

C#|---------------------------------|---------------------------------|
G#|---------------------------------|---------------------------------|
E |---------------------------------|-------------------------7-7-4-4-|
B |-2p0-----------------------------|-3-3-3-0-0-0-6-6-6-0-0-0---------|
F#|-------------5p3-----------------|---------------------------------|
B |-----2-2-2-2-----2-2-2-2-5p2-2-2-|---------------------------------|
PM      . . . .     . . . .     . .

End Verse (Both Guitars)
C#|-----------------------------|-----------------------------|
G#|-----------------------------|-----------------------------|
E |-9\7-7-7---9\7-7-7---9\7-7-7-|-7\5-5-5---7\5-5-5---7\5-5-5-|
B |-9\7-7-7---9\7-7-7---9\7-7-7-|-7\5-5-5---7\5-5-5---7\5-5-5-|
F#|-7\5-5-5---7\5-5-5---7\5-5-5-|-5\3-3-3---5\3-3-3---5\3-3-3-|
B |-----------------------------|-----------------------------|

Pre-Chorus (Both Guitars)
C#|-----------------------------------|
G#|-----------------------------------|
E |-----------------------------------|
B |-0-2---3-2---0-2---2-3-3-3-3-3-3-3-|
F#|-0-2---3-2---0-2---2-3-3-3-3-3-3-3-|
B |-0-2---3-2---0-2---2-3-3-3-3-3-3-3-|
PM  .     .     .     . . . . . . . .

Chorus
C#|-----------------------------------------------------------------------|
G#|-----------------------------------------------------------------------|
E |-----5*-------5*-------5*-------5*-------5*-------5*-------------------|
B |-0-2----2-3-2----2-0-2----2-3-2----2-0-2----2-3-2----2-0-8-8-5-5-6-6-3-|
F#|-0-2----2-3-2----2-0-2----2-3-2----2-0-2----2-3-2----2-0-8-8-5-5-6-6-3-|
B |-0-2----2-3-2----2-0-2----2-3-2----2-0-2----2-3-2----2-0-8-8-5-5-6-6-3-|

C#|-----------------------------------------------------------------------|
G#|-----------------------------------------------------------------------|
E |-----5*-------5*-------5*-------5*-------5*-------5*-------------------|
B |-0-2----2-3-2----2-0-2----2-3-2----2-0-2----2-3-2----2-0-8-8-5-5-6-6-3-|
F#|-0-2----2-3-2----2-0-2----2-3-2----2-0-2----2-3-2----2-0-8-8-5-5-6-6-3-|
B |-0-2----2-3-2----2-0-2----2-3-2----2-0-2----2-3-2----2-0-8-8-5-5-6-6-3-|

Bridge (Gtr. 1 w/Flanger)
C#|----------------------------------------------------------|
G#|-3---------------------Slow-Pick Scrape-------------------|
E |-2---------------x//////////////////////////--------------|
B |-0--------------------------------------------------------|
F#|-0--------------------------------------------------------|
B |-0--------------------------------------------------------|

(Both Gtrs.)
C#|-------r-x----------r-x----------r-x---------------------|
G#|--------a-x----------a-x----------a-x--------------------|
E |---------k-x----------k-x----------k-x-------------------|
B |-0---1----e-x-0---1----e-x-0---1----e-x--6-3-4-1-2-1-----|
F#|-0---1--------0---1--------0---1---------6-3-4-1-2-1-----|
B |-0---1--------0---1--------0---1---------6-3-4-1-2-1-----|

C#|-------r-x----------r-x----------r-x-----------------|
G#|--------a-x----------a-x----------a-x----------------|
E |---------k-x----------k-x----------k-x---------------|
B |-0---1----e-x-0---1----e-x-0---1----e-x--6-3-4-1-2-1-|
F#|-0---1--------0---1--------0---1---------6-3-4-1-2-1-|
B |-0---1--------0---1--------0---1---------6-3-4-1-2-1-|

C#|-------------------------------------------------|
G#|-------------------------------------------------|
E |-------------------------------------------------|
B |-------------------------------------------------|
F#|-------------------------------------------------|
B |-0-0-0-0-0-0-0-0-0-0-0-0-0-0-0-0-0-0-3-3-3-4-4-4-|
PM  . . . . . . . . . . . . . . . . . . . . . . . .

C#|-------------------------------------|
G#|-------------------------------------|
E |-------------------------------------|
B |-------------------------6-3-4-1-2-1-|
F#|-------------------------6-3-4-1-2-1-|
B |-0-0-0-0-0-0-0-0-0-0-0-0-6-3-4-1-2-1-|
PM  . . . . . . . . . . . .

C#|-------------------------------------------------|
G#|-------------------------------------------------|
E |-------------------------------------------------|
B |-------------------------------------------------|
F#|-------------------------------------------------|
B |-0-0-0-0-0-0-0-0-0-0-0-0-0-0-0-0-0-0-3-3-3-4-4-4-|
PM  . . . . . . . . . . . . . . . . . . . . . . . .

C#|-------------------------------------|
G#|-------------------------------------|
E |-------------------------------------|
B |-------------------------6-3-4-1-2-1-|
F#|-------------------------6-3-4-1-2-1-|
B |-0-0-0-0-0-0-0-0-0-0-0-0-6-3-4-1-2-1-|
PM  . . . . . . . . . . . .

(Gtr. 1)
C#|-------r-x----------r-x----------r-x----------------|
G#|--------a-x----------a-x----------a-x---------------|
E |---------k-x----------k-x----------k-x--------------|
B |-0---1----e-x-0---1----e-x-0---1----e-x-6-3-4-1-2-1-|
F#|-0---1--------0---1--------0---1--------6-3-4-1-2-1-|
B |-0---1--------0---1--------0---1--------6-3-4-1-2-1-|

C#|----------------------------------------------------|
G#|----------------------------------------------------|
E |-----8\-----------8\-----------8\-------------------|
B |-0------------0------------0------------6-3-4-1-2-1-|
F#|-0---6\-------0---6\-------0---6\-------6-3-4-1-2-1-|
B |-0------------0------------0------------6-3-4-1-2-1-|

(Gtr. 2)
C#|----------------------------------------------------|
G#|----------------------------------------------------|
E |-----8\-----------8\-----------8\-------------------|
B |-0------------0------------0------------6-3-4-1-2-1-|
F#|-0---6\-------0---6\-------0---6\-------6-3-4-1-2-1-|
B |-0------------0------------0------------6-3-4-1-2-1-|

C#|----------------------------------------------------|
G#|----------------------------------------------------|
E |----11\----------11\----------11\-------------------|
B |-0------------0------------0------------6-3-4-1-2-1-|
F#|-0---9\-------0---9\-------0---9\-------6-3-4-1-2-1-|
B |-0------------0------------0------------6-3-4-1-2-1-|

Pre-Fast Riff (Gtr. 1)
C#|-----------------------------------|
G#|-----------------------------------|
E |-----9---9-9\7-7\5-5\4-------------|
B |-2---------------------------------|
F#|-2---7---7-7\5-5\3-3\2-------------|
B |-2---------------------------------|

Pre-Fast Riff (Gtr. 2)
C#|-----------------------------------|
G#|-----------------------------------|
E |---------9-9/11-11/12-12/14--------|
B |-2---------------------------------|
F#|-2-------7-7/9---9/10-10/12--------|
B |-2---------------------------------|

Fast Riff (Gtr. 1)
C#|-------------------------------|-------------------------------|
G#|-------------------------------|-------------------------------|
E |-----------------5---4---------|-----------------5---4---------|
B |-----2-------------------4---5-|-----2-------------------4---5-|
F#|-----------5-------------------|-----------2-------------------|
B |-2-2---2-2---2-----2---2---2---|-2-2---2-2---2-----2---2---2---|
PM  . .   . .   .     .   .   .     . .   . .   .     .   .   .

C#|-------------------------------|-------------------------------|
G#|-------------------------------|-------------------------------|
E |-------------------------------|---------------5-3-----3-------|
B |-----5-----4-----9---7---5---4-|-----5-----4-------5-4---5-4-2-|
F#|-0-0---0-0---0-----0---0---0---|-3-3---3-3---3-----------------|
B |-------------------------------|-------------------------------|
PM  . .   . .   .     .   .   .     . .   . .   .   

C#|-------------------------------|-------------------------------|
G#|-------------------------------|-------------------------------|
E |-----------------5---4---------|-----------------5---4---------|
B |-----2-------------------4---5-|-----2-------------------4---5-|
F#|-----------5-------------------|-----------2-------------------|
B |-2-2---2-2---2-----2---2---2---|-2-2---2-2---2-----2---2---2---|
PM  . .   . .   .     .   .   .     . .   . .   .     .   .   .

C#|-------------------------------|-------------------------------|
G#|-------------------------------|-------------------------------|
E |-------------------------------|---------------5-3-----3-------|
B |-----5-----4-----9---7---5---4-|-----5-----4-------5-4---5-4-2-|
F#|-0-0---0-0---0-----0---0---0---|-3-3---3-3---3-----------------|
B |-------------------------------|-------------------------------|
PM  . .   . .   .     .   .   .     . .   . .   .   

(Gtr. 2)
C#|-------------------------------|-------------------------------|
G#|-------------------------------|-------------------------------|
E |-------------------------------|-------------------------------|
B |-------------------------------|-------------------------------|
F#|-------------------------------|-------------------------------|
B |-------------------------------|-------------------------------|

C#|-------------------------------|-------------------------------|
G#|-------------------------------|-------------------------------|
E |-2-----------------------------|-5-----------------------------|
B |-2-Let Ring--------------------|-5-Let Ring--------------------|
F#|-0-----------------------------|-3-----------------------------|
B |-------------------------------|-------------------------------|

C#|-------------------------------|-------------------------------|
G#|-------------------------------|-------------------------------|
E |-----------------5---4---------|-----------------5---4---------|
B |-----2-------------------4---5-|-----2-------------------4---5-|
F#|-----------5-------------------|-----------2-------------------|
B |-2-2---2-2---2-----2---2---2---|-2-2---2-2---2-----2---2---2---|
PM  . .   . .   .     .   .   .     . .   . .   .     .   .   .

C#|-------------------------------|-------------------------------|
G#|-------------------------------|-------------------------------|
E |-------------------------------|---------------5-3-----3-------|
B |-----5-----4-----9---7---5---4-|-----5-----4-------5-4---5-4-2-|
F#|-0-0---0-0---0-----0---0---0---|-3-3---3-3---3-----------------|
B |-------------------------------|-------------------------------|
PM  . .   . .   .     .   .   .     . .   . .   .   

Fast Verse (Gtr. 1)
C#|-------------------------------|-------------------------------|
G#|-------------------------------|-------------------------------|
E |-----------------5---4---------|-----------------5---4---------|
B |-----2-------------------4---5-|-----2-------------------4---5-|
F#|-----------5-------------------|-----------2-------------------|
B |-2-2---2-2---2-----2---2---2---|-2-2---2-2---2-----2---2---2---|
PM  . .   . .   .     .   .   .     . .   . .   .     .   .   .

C#|-------------------------------|-------------------------------|
G#|-------------------------------|-------------------------------|
E |-------------------------------|---------------8-7-5---7-5-----|
B |-----5-----4-----9---7---5---4-|-----5-----4---------7-----7-5-|
F#|-0-0---0-0---0-----0---0---0---|-3-3---3-3---3-----------------|
B |-------------------------------|-------------------------------|
PM  . .   . .   .     .   .   .     . .   . .   .   

C#|-------------------------------|-------------------------------|
G#|-------------------------------|-------------------------------|
E |-----------------5---4---------|-----------------5---4---------|
B |-----2-------------------4---5-|-----2-------------------4---5-|
F#|-----------5-------------------|-----------2-------------------|
B |-2-2---2-2---2-----2---2---2---|-2-2---2-2---2-----2---2---2---|
PM  . .   . .   .     .   .   .     . .   . .   .     .   .   .

C#|-------------------------------|--------------|
G#|-------------------------------|--------------|
E |-------------------------------|--------------|
B |-----5-----4-----9---7---5---4-|-----5-----4--|
F#|-0-0---0-0---0-----0---0---0---|-3-3---3-3---3|
B |-------------------------------|--------------|
PM  . .   . .   .     .   .   .     . .   . .   .   

(Gtr. 2)
C#|-------------------------------|-------------------------------|
G#|-------------------------------|-------------------------------|
E |-----------------5---4---------|-----------------5---4---------|
B |-----2-------------------4---5-|-----2-------------------4---5-|
F#|-----------5-------------------|-----------2-------------------|
B |-2-2---2-2---2-----2---2---2---|-2-2---2-2---2-----2---2---2---|
PM  . .   . .   .     .   .   .     . .   . .   .     .   .   .

C#|-------------------------------|-------------------------------|
G#|-------------------------------|-------------------------------|
E |-------------------------------|---------------5-3-----3-------|
B |-----5-----4-----9---7---5---4-|-----5-----4-------5-4---5-4-2-|
F#|-0-0---0-0---0-----0---0---0---|-3-3---3-3---3-----------------|
B |-------------------------------|-------------------------------|
PM  . .   . .   .     .   .   .     . .   . .   .   

C#|-------------------------------|-------------------------------|
G#|-------------------------------|-------------------------------|
E |-----------------5---4---------|-----------------5---4---------|
B |-----2-------------------4---5-|-----2-------------------4---5-|
F#|-----------5-------------------|-----------2-------------------|
B |-2-2---2-2---2-----2---2---2---|-2-2---2-2---2-----2---2---2---|
PM  . .   . .   .     .   .   .     . .   . .   .     .   .   .

C#|-------------------------------|---------------|
G#|-------------------------------|---------------|
E |-------------------------------|---------------|
B |-----5-----4-----9---7---5---4-|-----5-----4---|
F#|-0-0---0-0---0-----0---0---0---|-3-3---3-3---3-|
B |-------------------------------|---------------|
PM  . .   . .   .     .   .   .     . .   . .   .   

Descending Lick (Gtr. 1)
C#|-------------------------------------------------|
G#|-------------------------------------------------|
E |-8-7-5---7-5-----5-------------------------------|
B |-------7-----7-5---7-5-4-7-5-4---5-4-----4-------|
F#|-------------------------------7-----7-5---7-5-4-|
B |-------------------------------------------------|

Descending Lick (Gtr. 2)
C#|-------------------------------------------------|
G#|-------------------------------------------------|
E |-5-3-----3---------------------------------------|
B |-----5-4---5-4-2-5-4-2---4-2-----2---------------|
F#|-----------------------5-----5-4---5-4-2-5-4-2-0-|
B |-------------------------------------------------|

Machine Gun Riff 2 (Both Gtrs)
C#|-------------------------------------------------------------------------------|
G#|-------------------------------------------------------------------------------|
E |-------------------------------------------------------------3-3-3-------------|
B |-0-2-----------------0-2-----------------0-2-----------------3-3-3-1-1-1-------|
F#|-0-2-----------------0-2-----------------0-2-----------------1-1-1-1-1-1-------|
B |-0-2-0-2-2-2-2-2-2-2-0-2-0-2-2-2-2-2-2-2-0-2-0-2-2-2-2-2-2-2-------1-1-1-------|
PM      . . . . . . . .     . . . . . . . .     . . . . . . . .       . . .

C#|-------------------------------------------------------------------------------|
G#|-------------------------------------------------------------------------------|
E |-------------------------------------------------------------3-3-3-------------|
B |-0-2-----------------0-2-----------------0-2-----------------3-3-3-1-1-1-------|
F#|-0-2-----------------0-2-----------------0-2-----------------1-1-1-1-1-1-------|
B |-0-2-0-2-2-2-2-2-2-2-0-2-0-2-2-2-2-2-2-2-0-2-0-2-2-2-2-2-2-2-------1-1-1-------|
PM      . . . . . . . .     . . . . . . . .     . . . . . . . .       . . .

C#|-------------------------------------------------------------------------------|
G#|-------------------------------------------------------------------------------|
E |-------------------------------------------------------------3-3-3-------------|
B |-0-2-----------------0-2-----------------0-2-----------------3-3-3-1-1-1-------|
F#|-0-2-----------------0-2-----------------0-2-----------------1-1-1-1-1-1-------|
B |-0-2-0-2-2-2-2-2-2-2-0-2-0-2-2-2-2-2-2-2-0-2-0-2-2-2-2-2-2-2-------1-1-1-------|
PM      . . . . . . . .     . . . . . . . .     . . . . . . . .       . . .

C#|-------------------------------------------------------------|
G#|-------------------------------------------------------------|
E |-------------------------------------------------------------|
B |-0-2-----------------0-2-----------------0-2-----------------|
F#|-0-2-----------------0-2-----------------0-2-----------------|
B |-0-2-0-2-2-2-2-2-2-2-0-2-0-2-2-2-2-2-2-2-0-2-0-2-2-2-2-2-2-2-|
PM      . . . . . . . .     . . . . . . . .     . . . . . . . . .

C#|-----------------------|
G#|-----------------------|
E |-3---3---3-------------|
B |-3---3---3---1---1---1-|
F#|-1---1---1---1---1---1-|
B |-------------1---1---1-|
PM              .   .   .

Slow Machine Gun Riff (Both Gtrs)
C#|----------------------------------------------------------------------------------|
G#|----------------------------------------------------------------------------------|
E |----------------------------------------------------------------------------------|
B |----------------------------------------------------------------------------------|
F#|-----bu---------------------------------------------------------------------------|
B |-0-(1)(2)-0-2-2-2-2-2-2-2-2-0-(1)(2)-0-2-2-2-2-2-2-2-2-0-(1)(2)-0-2-2-2-2-2-2-2-2-|
PM  .        . . . . . . . . . .        . . . . . . . . . .        . . . . . . . . .

C#|-----------------------|
G#|-----------------------|
E |-3---3---3-------------|
B |-3---3---3---1---1---1-|
F#|-1---1---1---1---1---1-|
B |-------------1---1---1-|
PM              .   .   .

C#|----------------------------------------------------------------------------------|
G#|----------------------------------------------------------------------------------|
E |----------------------------------------------------------------------------------|
B |----------------------------------------------------------------------------------|
F#|-----bu---------------------------------------------------------------------------|
B |-0-(1)(2)-0-2-2-2-2-2-2-2-2-0-(1)(2)-0-2-2-2-2-2-2-2-2-0-(1)(2)-0-2-2-2-2-2-2-2-2-|
PM  .        . . . . . . . . . .        . . . . . . . . . .        . . . . . . . . .

C#|-----------------------|
G#|-----------------------|
E |-3---3---3-------------|
B |-3---3---3---1---1---1-|
F#|-1---1---1---1---1---1-|
B |-------------1---1---1-|
PM              .   .   .

End Riff (Gtr. 1)
C#|---------------------------------------|---------------------------------------|
G#|---------------------------------------|---------------------------------------|
E |------------------------------------5*-|------------------------------------5*-|
B |-0-2--------------------------5*-5*----|-0-2--------------------------5*-5*----|
F#|-0-2-Let Ring--------------------------|-0-2-Let Ring--------------------------|
B |-0-2-----------------------------------|-0-2-----------------------------------|

C#|---------------------------------------|---------------------------------------|
G#|---------------------------------------|---------------------------------------|
E |------------------------------------5*-|------------------------------------5*-|
B |-0-2--------------------------5*-5*----|-0-2--------------------------5*-5*----|
F#|-0-2-Let Ring--------------------------|-0-2-Let Ring--------------------------|
B |-0-2-----------------------------------|-0-2-----------------------------------|

C#|---------------------------------------|
G#|---------------------------------------|
E |-(5*)-Let Ring-------------------------|
B |---------------------------------------|
F#|---------------------------------------|
B |---------------------------------------|

(Gtr. 2)
C#|---------------------------------------|---------------------------------------|
G#|--------x/13-13-13\11-11-11\-----------|--------x/13-13-13\11-11-11\-----------|
E |------------------------------------5*-|------------------------------------5*-|
B |-0-2----x/10-10-10\-8--8--8\--5*-5*----|-0-2----x/10-10-10\-8--8--8\--5*-5*----|
F#|-0-2-----------------------------------|-0-2-----------------------------------|
B |-0-2-----------------------------------|-0-2-----------------------------------|

C#|---------------------------------------|---------------------------------------|
G#|--------x/13-13-13\11-11-11\-----------|--------x/13-13-13\11-11-11\-----------|
E |------------------------------------5*-|------------------------------------5*-|
B |-0-2----x/10-10-10\-8--8--8\--5*-5*----|-0-2----x/10-10-10\-8--8--8\--5*-5*----|
F#|-0-2-----------------------------------|-0-2-----------------------------------|
B |-0-2-----------------------------------|-0-2-----------------------------------|

C#|---------------------------------------|
G#|---------------------------------------|
E |-(5*)-Let Ring-------------------------|
B |---------------------------------------|
F#|---------------------------------------|
B |---------------------------------------|

Thanks guys, it took a while, but it’s all there. Enjoy.

Meeky

Any tab requests to meeky001@hotmail.com
Comments