Machine Head - From This Day Chords & Tabs

 

From This Day Chords & Tabs

Machine Head Chords & Tabs

Version: 8 Type: Tab 0 ratings
1 star 2 stars 3 stars 4 stars 5 stars
comments

From This Day Tab

Tabbed by da_gr8_ispuk

Tuning - Drop D (DADGBE for those who don't know)


/ = Slide up
~ = Tremelo

|------------------------------------------------------------|
|------------------------------------------------------------|
|------------------------------------------------------------|
|-----9/10-9----9-8-------9/10-9----9-8~-----9/10 9----9-8---|
|-0-0--------10-----9-0-0--------10------0-0--------10-----9-|
|-0-0-----------------0-0----------------0-0-----------------|
[ Tab from: http://www.guitartabs.cc/tabs/m/machine_head/from_this_day_tab_ver_8.html ]
|-------------------------------|
|-------------------------------|
|------------------10~----------|
|-----9/10-9----9---------------|
|-0-0--------10-----------------|
|-0-0---------------------------|

Listen to the CD, this plays a few times, then as soon as Rob
shouts "1,2,3,4!!!!!!" then it goes to

|-------------------------------------------------|
|-------------------------------------------------|
|-------------------------------------------------|
|-0-0-0-0-0-0-1-4-0-0-0-0-0-0-1-4-0-0-0-0-0-0-1-4-|
|-0-0-0-0-0-0-1-4-0-0-0-0-0-0-1-4-0-0-0-0-0-0-1-4-|
|-0-0-0-0-0-0-1-4-0-0-0-0-0-0-1-4-0-0-0-0-0-0-1-4-|

|---------------------------------|
|---------------------------------|
|-----------------4-3-2-1-4-3-2-1-|
|-0-0-0-0-0-0-1-4-----------------|
|-0-0-0-0-0-0-1-4-----------------|
|-0-0-0-0-0-0-1-4-----------------|
Comments