Machine Head - Deafening Silence Chords & Tabs

 

Deafening Silence Chords & Tabs

Machine Head Chords & Tabs

Version: 3 Type: Tab 0 ratings
1 star 2 stars 3 stars 4 stars 5 stars
comments

Deafening Silence Tab

Machine Head - Deafening silence:

Here it is in a normal tuning. For all you lazy fuckers like me,
who don't to tune guitars, but just play. Have Fucking Fun!!!!!!

Vers:

|---------|
|---------|
|---------|
|---------|
|-4-2-7-2-|
|-2-0-5-0-|

Pre-chorus:

|-----------------|
|-----------------|
|-----------------|
|-4-7-4-7-7-7-----|
|-4-7-4-7-7-7-----|
|-2-5-2-5-5-5-----|

Chorus:

|---------------------|
|---------------------|
|---------------------|
|---6-7-4---6-7-------|
|-4-4-5-2-4-4-5-2-----|
|-2-------2-----0-----|

Interlude:
[ Tab from: http://www.guitartabs.cc/tabs/m/machine_head/deafening_silence_tab_ver_3.html ]
|-----|---------|-----|---------|-----|---------|-----|---------|-----|---|
|-----|---------|-----|---------|-----|---------|-----|---------|-----|---|
|-----|-7-------|-----|-7-------|-----|-7-------|-4-6-|-7-------|-4-6-|-7-|
|-4---|-7-------|-4---|-7-------|-4---|-7-------|-4-6-|-7-------|-4-6-|-7-|
|-4---|-5-------|-4---|-5-------|-4---|-5-------|-2-4-|-5-------|-2-4-|-5-|
|-2-5-|---5-4-0-|-2-5-|---5-4-7-|-2-5-|---5-4-0-|-----|---5-4-0-|-----|---|

Solo:

|---------------------|
|---------------------|
|---------------------|
|---6-7-4---6-7-------|
|-4-4-5-2-4-4-5-2-----|
|-2-------2-----0-----|


Hate Mail: Krolletop@hotmail
Comments