Machine Head - Davidian Chords & Tabs

 

Davidian Chords & Tabs

Machine Head Chords & Tabs

Version: 6 Type: Tab 0 ratings
1 star 2 stars 3 stars 4 stars 5 stars
comments

Davidian Tab

Band: Machine Head
Song: Davidian
Album: Burn My Eyes
Tabbed by: RIPdime

Intro
|--------------------------|
|---n.h.--------n.h.-------|
|----5-----------5---------|
|-----5-----------5--------|
|-0------1~--0-0-----1-3-4-|
|-0------1~--0-0-----1-3-4-|
|PM          - -           |

|--------------------------|
|---n.h.--------n.h.-------|
|----5-----------5---------|
|------5----------5--------|
|-0------1~--0-0-----1-4-3-|
|-0------1~--0-0-----1-4-3-|
|PM          - -           |

Verse
|-----------------------|
|-----------------------|
|-----------------------|
|-----------------------|
|-0-0-1-0-00000-6-0-3-4-|
|-0-0-1-0-00000-6-0-3-4-|
|PM   -                 |

Pause: "Let freedom ring with a shotgun blast"

|----------------------------|
|----------------------------|
|----------------------------|
|---------------n.h.---------|
|-0-3-0-6-5--|3-3-3-3|-0-3---|
|-0-3-0-6-5--|3-3-3-3|-0-3---|

Solo
|--------------------------------------|-------------------------------------|
|--------------------------------------|----------10--10-11-11-13--13---13-7-|
|--7-(7)--8~---8/11--12--11------11-11-|--11--12-----------------------------|
|--------------------------------------|-------------------------------------|
|--------------------------------------|-------------------------------------|
|--------------------------------------|-------------------------------------|
                                        Pinch Harmonics
|--------------------------------------|---------------------|--------------|
|--10~---------------------------------|---------------------|------------7-|
|---------12-12-12--(12)-10------------|--5~~----------------|-------5--7---|
|---------------------------12--(12)\--|---------6-----------|--(6)---------|
|--------------------------------------|---------------------|--------------|
|--------------------------------------|---------------------|--------------|

|-----------------------------|-------------8--8/10--11--10------|-----------|
|--7h8p7---7---8/10--7/8--10--|--11--8--10-------------------13--|--13-------|
|--------8--------------------|----------------------------------|-----------|
|-----------------------------|----------------------------------|-----------|
|-----------------------------|----------------------------------|-----------|
|-----------------------------|----------------------------------|-----------|

10----10---|
13------13-|
-----------|
-----------|
-----------|
-----------|


|----------------------------------|---------------------------------|
|----------------------------------|---------------------------------|
|----------------------------------|---------------------------------|
|----------------------------------|----------------6-6-3-3-5-5-4-4--|
|--------------------------5-5-----|----6-6-6-6-3-3------------------|
|--0-0-0-0-6-6-6-6-3-3-3-3-----6-6-|6-6------------------------------|
[ Tab from: http://www.guitartabs.cc/tabs/m/machine_head/davidian_tab_ver_6.html ]
   pm---------------------------------------------------------------------|
|----------------------------------|-----------------|--------------------|
|----------------------------------|-----------------|--------------------|
|----------------------------------|-----------------|--------------------|
|----------------------------------|-----------------|--------------------|
|--------------------------5-5-----|-----6-6-6-6-3-3-|--6-----------------|
|--0-0-0-0-6-6-6-6-3-3-3-3-----6-6-|-6-6-------------|--6-----------------|

Bend all of the following loads.
|---------10----10-10--10--|--10--10---------10------10--|-10---10--10--10--|
|--13-----13-----------13--|--13--13--13---------13------|-13---13--13--13--|
|--------------------------|-----------------------------|------------------|
|--------------------------|-----------------------------|------------------|
|--------------------------|-----------------------------|------------------|
|--------------------------|-----------------------------|------------------|

|--10------10------10------10--|----------13---------|----------------------|
|--13--13--13--13--13--13--13--|--16------16------19-|--(19)--19----19------|
|------------------------------|---------------------|----------------------|
|------------------------------|---------------------|----------------------|
|------------------------------|---------------------|----------------------|
|------------------------------|---------------------|----------------------|

|-----------16----------|---------------------------------|-----------16----|
|--19-------19------19--|--(19)--19----19--19--19--19-----|--19-------19----|
|-----------------------|---------------------------------|-----------------|
|-----------------------|---------------------------------|-----------------|
|-----------------------|---------------------------------|-----------------|
|-----------------------|---------------------------------|-----------------|

|--16------16------16------16------|-----------16-------16--|--(16)-16--16--|
|--19--19--19--19--19--19--19--19--|--19-------19-------19--|--(19)-19--19--|
|----------------------------------|------------------------|---------------|
|----------------------------------|------------------------|---------------|
|----------------------------------|------------------------|---------------|
|----------------------------------|------------------------|---------------|

|----------16-----16--|--(16)---16---16---16---|-----|
|--19------19-----19--|--(19)---19---19---19---|-----|
|---------------------|------------------------|-----|
|---------------------|------------------------|-----|
|---------------------|------------------------|-----|
|---------------------|------------------------|-----|

Outro
|--------------------------------------|
|--------------------------------------|
|--------------------------------------|
|--------------------------------------|
|-0000-000-0000-000-3333-4444-1111-3333|
|-0000-000-0000-000-3333-4444-1111-3333|
|Pm------------------------------------|
Comments