Machine Head - Blood Of The Zodiac Chords & Tabs

 

Blood Of The Zodiac Chords & Tabs

Machine Head Chords & Tabs

Version: 2 Type: Bass Tab 0 ratings
1 star 2 stars 3 stars 4 stars 5 stars
comments

Blood Of The Zodiac Bass Tab

   	BLOOD OF THE ZODIAC
                          MACHINE HEAD
                     THE MORE THINGS CHANGE....

blood of the zodiac

Tuning: Dropped D a half step down

  THE riff:

||------------------------------------------------------------------------||
||------------------------------------------------------------------------||
||-----------3--6-6--5------------3--6-6------------3--6-6----------------||
||-0--0-0-0-------------0--0-0-0----------0--0-0-0----------0-5-6--3-4-1--||

[ Tab from: http://www.guitartabs.cc/tabs/m/machine_head/blood_of_the_zodiac_btab_ver_2.html ]
|---------|---------||---------------|
|---------|---------||---------------|
|---------|---------||---------------|
|--0--0-0-|-1--1-1--||--6--5--3------|

Pre chorus:

||---------|-----------------|-------------------------||
||---------|-----------------|-------------------------||
||---------|-----------------|-------------------------||
||-0-0-0-0-|--1-1-1-1--------|---6--5------3-----------||

Pre chorus 2:
|---------------------------|
|---------------------------|
|---------------6-6-6-------|
|-5--5-5-5------------------|

   

Comments