Machine Head - Blistering Chords & Tabs

 

Blistering Chords & Tabs

Machine Head Chords & Tabs

Version: 2 Type: Bass Tab 0 ratings
1 star 2 stars 3 stars 4 stars 5 stars
comments

Blistering Bass Tab

   
Blistering - Machine Head (tabbed by: ryan b)

Tune down to C#  G#  C#  F#

***rest for dentist drill-like noises (0:00-0:22)***

Riff A: (6 times)
F#--------------------------------------------------
C#--------------------------------------------------
G#-----------555-444--------------------------------
C#--666-333-----------33-44--000-111-000-111-00-1-1-

Riff B: (once)
F#---------------------------------------------
C#---------------------------------------------
G#--3h5--3/6--------------3h5--3/6-------------
C#------------0--0-0--0-------------0--0-0--0--

Riff C: (once)
F#---------------------------------------------
C#---------------------------------------------
G#--3h5--3/6--------------3h5--3/6-------------
C#------------0--0-0--0-------------0-00-0-00--

Riff B: (once)
Riff C: (once)

Riff D: (once)
F#-----------------------
C#-----------------------
G#-----------------------
C#--6---6---6---6---6-5--
[ Tab from: http://www.guitartabs.cc/tabs/m/machine_head/blistering_btab_ver_2.html ]
Riff B: (once)
Riff D: (once)
Riff B: (once)
Riff D: (once)
Riff B: (once)
Riff D: (once)

Riff E: (4 times)
F#-----------------------------
C#-----------------------------
G#-----------------------------
C#--1-1-1-0---0-0-0-4---0-0-1-1--

Riff A: (4 times)
Riff B: (once)
Riff C: (once)
Riff B: (once)
Riff C: (once)
Riff D: (once)
Riff B: (once)
Riff D: (once)
Riff B: (once)
Riff D: (once)
Riff B: (once)
Riff D: (once)
Riff E: (4 times)

Riff F: (once)
G#----------------
C#--0----------0--

Riff G: (12 times)
F#-------------------------------
C#-------------------------------
G#----------2--------------------
C#--0--0-0-----3-3--0-1-0h1/4-4--

***rest for psycho-style guitar (3:43 - 3:45)***

Riff B: (once)
Riff C: (once)
Riff B: (once)
Riff C: (once)
Riff D: (once)
Riff B: (once)
Riff D: (once)
Riff B: (once)
Riff D: (once)
Riff B: (once)
Riff D: (once)
Riff E: (8 times)
Riff A: (once)

Riff H: (once)
F#----------------------------------------------
C#----------------------------------------------
G#-----------555-444----------------------------
C#--666-333-----------33-44--000-111-000-111-0--

Comments