Machine Head - Bite The Bullet Chords & Tabs

 

Bite The Bullet Chords & Tabs

Machine Head Chords & Tabs

Version: 1 Type: Bass Tab 0 ratings
1 star 2 stars 3 stars 4 stars 5 stars
comments

Bite The Bullet Bass Tab

   
Band - Machine Head
Song - Bite The Bullet

Tuning B F# B E

Intro: x8

|----|
|----|
|----| x8
|-1~-|
 
|---------------------------------|
|---------------------------------|
|---------------------------------| x4
|-2-2-2-2-0----2-2-2-0---2-2-0----|
 

Verse:
|--------|---------------------------------|
|--------|---------------------------------|
|--------|---------------------------------| x3
|-rest---|-2-2-2-2-0----2-2-2-0---2-2-0----|

Chorus:
|-----------------------------------------------------|
|-----------------------------------------------------|
|-----------------------------------------------------| x3
|-1~---10~-6?-0-3-5-6-0-6-5-3-0-3-5-6-0-6-5-3---------| 

|----------------------------------|
|----------------------------------|
|----------------------------------| 
|-10~-----6---5---3---6---5-3------|

Interlude:
|---------------------------------|
|---------------------------------|
|---------------------------------| x4
|-2-2-2-2-0----2-2-2-0---2-2-0----|
[ Tab from: http://www.guitartabs.cc/tabs/m/machine_head/bite_the_bullet_btab.html ]
Verse:
|--------|---------------------------------|
|--------|---------------------------------|
|--------|---------------------------------| x3
|-rest---|-2-2-2-2-0----2-2-2-0---2-2-0----|

Chorus:
|-----------------------------------------------------|
|-----------------------------------------------------|
|-----------------------------------------------------| x3
|-1~---10~-6?-0-3-5-6-0-6-5-3-0-3-5-6-0-6-5-3---------| 

|----------------------------------|
|----------------------------------|
|----------------------------------| 
|-10~-----6---5---3---6---5-3------|

Bridge:
|-----------------------|
|-0-3-5-6-0-6-5-3-------|
|-----------------------|
|-----------------------|

|----------------------|
|----------------------|
|----------------------|
|-0-3-5-6-0-6-5-3------|
 
Chorus:
|-----------------------------------------------------|
|-----------------------------------------------------|
|-----------------------------------------------------| x3
|-1~---10~-6?-0-3-5-6-0-6-5-3-0-3-5-6-0-6-5-3---------| 

|----------------------------------|
|----------------------------------|
|----------------------------------| 
|-10~-----6---5---3---6---5-3------|

Outro:
|---------------------------------|
|---------------------------------|
|---------------------------------| x2
|-2-2-2-2-0----2-2-2-0---2-2-0----|
Comments