Machine Head - American High Chords & Tabs

 

American High Chords & Tabs

Machine Head Chords & Tabs

Version: 1 Type: Bass Tab

American High Bass Tab

   
-------------------------------------------------------------------------------
			  AMERICAN HIGH - Machine Head
-------------------------------------------------------------------------------

Tabbed By : bassmasta_saxman
e-mail: read2906@hotmail.com (feel free to email with any suggestions/comments)

Tuning: Standard 5-String (B E A D G)

Vocals and guitar then Intro:
-
G|--------------------------|      G|------------------------|
D|--------------------------|      D|------------------------|
A|--------------------------| x3   A|------------------------|
E|--------------------------|      E|------------------------|
B|-0--1p0-1p0-1p0-1--0h1-0--|      B|-0--1p0-1p0-1p0-//12\\--|

G|--------------------------|      G|----------------------------|
D|--------------------------|      D|----------------------------|
A|--------------------------| x3   A|----------------------------| 
E|--------------------------|      E|----------------------------|
B|-0--1p0-1p0-1p0-1--0h1-0--|      B|-0--1p0-1p0-1--1p0-1p0-1p0--|

Rest for verse then intro riff:

G|--------------------------|      G|----------------------------|                          
D|--------------------------|      D|----------------------------|                           
A|--------------------------| x3   A|----------------------------|            
E|--------------------------|      E|----------------------------|                               
B|-0--1p0-1p0-1p0-1--0h1-0--|      B|-0--1p0-1p0-1--1p0-1p0-1p0--|                                

Rest for second verse then prechorus:

G|-----------------------|
D|-----------------------|
A|-------8---------------| x2
E|-----7---8------7-5-8--|
B|-000--------000--------|

Chorus:
[ Tab from: http://www.guitartabs.cc/tabs/m/machine_head/american_high_btab.html ]
G|----------------------------------|
D|----------------------------------|
A|----------------------------------| x2
E|-7-7-7-7---------5-5-5-5-8-8-8-8--|
B|---------6-6-6-6------------------|

Intro Riff:

G|--------------------------|      G|----------------------------|                          
D|--------------------------|      D|----------------------------|                           
A|--------------------------| x2   A|----------------------------|            
E|--------------------------|      E|----------------------------|                               
B|-0--1p0-1p0-1p0-1--0h1-0--|      B|-0--1p0-1p0-1--1p0-1p0-1p0--|

Rest for third verse then prechorus:

G|-----------------------|
D|-----------------------|
A|-------8---------------| x2
E|-----7---8------7-5-8--|
B|-000--------000--------|

Chorus:

G|----------------------------------|
D|----------------------------------|
A|----------------------------------| x2
E|-7-7-7-7---------5-5-5-5-8-8-8-8--|
B|---------6-6-6-6------------------|

Rest for first part of bridge then:

G|-------------------|
D|-------------------|
A|-------------------| x4
E|-------------8787--|
B|-0-0-0-0-0-0-------|

G|-------------------|
D|-------------------|
A|-------------------| x4
E|---7---7---7-8787--|
B|-00--00--00--------|

G|-------------------|
D|-------------------|
A|-------------------|
E|--7\\\-------------|
B|-------------------|

Chorus:

G|----------------------------------|
D|----------------------------------|
A|----------------------------------| x6
E|-7-7-7-7---------5-5-5-5-8-8-8-8--|
B|---------6-6-6-6------------------|

Outro:

G|--------------------------|
D|--------------------------|
A|--------------------------| x4
E|--------------------------|
B|-0--1p0-1p0-1p0-1--0h1-0--|

END


| /  slide up
| \  slide down
| h  hammer-on
| p  pull-off
| ~  vibrato
| +  harmonic
| x  Mute note
===============================================================================