Machine Head - All In Your Head Chords & Tabs

 

All In Your Head Chords & Tabs

Machine Head Chords & Tabs

Version: 1 Type: Tab 0 ratings
1 star 2 stars 3 stars 4 stars 5 stars
comments

All In Your Head Tab

   
"All In Your Head" by Machine Head on Supercharger
Drop-B Tuning

Intro and main riff (1)
C#-----------
G#-----------
E------------
B------------
F#----8-----6
B---0----0---

Intro and main riff (2)
C#--------------------------
G#--------------------------
E---------------------------
B---------------------------
F#----8-----6---6-6--6-6-6-6
B---0----0------------------

Pre-Verse
C#-------------
G#-------------
E---*4-*4-*3-*2
B--------------
F#-------------
B--------------
(*=Artificial harmonic)
[ Tab from: http://www.guitartabs.cc/tabs/m/machine_head/all_in_your_head_tab.html ]
Verse (1)
C#--------------------
G#--------------------
E---------------------
B---6s0--0-0-0-0-0-0-0
F#--6s0--0-0-0-0-0-0-0
B---6s0--0-0-0-0-0-0-0

Verse (2)
C#----------------------
G#----------------------
E-----------------------
B---6s3-3-3--10-10-10-10
F#--6s3-3-3--10-10-10-10
B---6s3-3-3--10-10-10-10

Pre-Chorus
C#----------------------------
G#----------------------------
E---7---9-10-12---15-14-15---6
B-----------------------------
F#--5---7-8--10---13-12-13---4
B-----------------------------

Chorus
C#-------------------
G#-------------------
E--------------------
B---0-----10------5s8
F#--0-----10------5s8
B---0-----10------5s8
(H=Hold)         (h)

Enjoy
-wicksickles-
Comments