Machinae Supremacy - Sidstyler Chords & Tabs

 

Sidstyler Chords & Tabs

Machinae Supremacy Chords & Tabs

Version: 1 Type: Tab 0 ratings
1 star 2 stars 3 stars 4 stars 5 stars
comments

Sidstyler Tab

Artist: Machinae Supremacy
Song:SidStyler
Tabbed by : Evo
                                                                            4x
||--------------------------------------------------------------------------||
||o------------------------------------------------------------------------o||
||--12-9---12-9---12-9---11-9---11-9---7-5---7-5---7-5---9-7---9-7---9-7----||
||-------9------9------9------9------9-----5-----5-----5-----7-----7--------||
||o------------------------------------------------------------------------o||
||--------------------------------------------------------------------------||


                                       PM|   PM|   PM|   PM|   PM|
|------------------------------------|----------------------------------|
|------------------------------------|----------------------------------|
|-12-9---12-9---12-9---12-9---12-9---|----------------------------------|
|------9------9------9------9------9-|----------------------------------|
|------------------------------------|-----5-----7-----8-----9-----9----|
|------------------------------------|-0-0-3-0-0-5-0-0-6-0-0-7-0-0-7----|

[ Tab from: http://www.guitartabs.cc/tabs/m/machinae_supremacy/sidstyler_tab.html ]
    PM|   PM|     PM|     PM|   PM|     PM|   PM|     PM|
||-----------------------------------------------------------------------||
||o---------------------------------------------------------------------o||
||-----------------------------------------------------------------------||
||-----------------------------------------------------------5--4--------||
||o-----7-----5-7-----5-7-----5-----7-5-----7-----5-7-----5--------7--5-o||
||--0-0---0-0-----0-0-----0-0-3-0-0-5-3-0-0---0-0-----0-0----------------||


  PM|   PM|     PM|     PM|   PM|     PM|   PM|     PM|
|-----------------------------------------------------------------------|
|-----------------------------------------------------------------------|
|-----------------------------------------------------------------------|
|---------------------------------------------------------5--4--5--4----|
|-----7-----5-7-----5-7-----5-----7-5-----7-----5-7-----5---------------|
|-0-0---0-0-----0-0-----0-0-3-0-0-5-3-0-0---0-0-----0-0-----------------|


  PM|   PM|     PM|     PM|   PM|     PM|   PM|     PM|
|----------------------------------------------------------------|
|----------------------------------------------------------------|
|----------------------------------------------------------------|
|----------------------------------------------------------------|
|-----7-----5-7-----5-7-----5-----7-5-----7-----5-7-----5-7-9----|
|-0-0---0-0-----0-0-----0-0-3-0-0-5-3-0-0---0-0-----0-0-----7----|
Comments