Machinae Supremacy - Jets N Guns Theme Chords & Tabs

 

Jets N Guns Theme Chords & Tabs

Machinae Supremacy Chords & Tabs

Version: 1 Type: Tab 0 ratings
1 star 2 stars 3 stars 4 stars 5 stars
comments

Jets N Guns Theme Tab

Artist: Machinae Supremacy
Song: Jets N' Guns Theme
TAB Author: Unknown (Found on machinaesupremacy.com forums)
Posted By: SynDRomE

I converted this with Guitar Pro 4 :D Hope u like it :D

Gtr 1
                                            5x                          
E||-------------------||--------------------||-------------------------|
B||-------------------||--------------------||-------------------------|
G||-------------------||*------------------*||-------------------------|
D||--4----------------||*------------------*||----4---2---4------------|
A||--4----------------||--------------------||----4---2---4------------|
E||--2----------------||--------------------||----2---0---2-----2/12/2-|


                                                         
----------------------------|---------------------------|
----------------------------|---------------------------|
----------------------------|------------------2--4--5--|
--4-4--4-4--2--4-4--4-4--2--|--4-4--4-4--2--4--2--4--5--|
--4-4--4-4--2--4-4--4-4--2--|--4-4--4-4--2--4--0--2--3--|
--2-2--2-2--0--2-2--2-2--0--|--2-2--2-2--0--2-----------|


                                                        
----------------------------|--------------------------|
----------------------------|--------------------------|
----------------------------|---------------5---4---2--|
--4-4--4-4--2--4-4--4-4--2--|--4-4--4-4--2--5---4---2--|
--4-4--4-4--2--4-4--4-4--2--|--4-4--4-4--2--3---2---0--|
--2-2--2-2--0--2-2--2-2--0--|--2-2--2-2--0-------------|


                                                         
----------------------------|---------------------------|
----------------------------|---------------------------|
----------------------------|---------------2--4--2-----|
--2-2--2-2--2--2-2--2-2--2--|--2-2--2-2--2--2--4--2--2--|
--2-2--2-2--2--2-2--2-2--2--|--2-2--2-2--2--0--2--0--2--|
--0-0--0-0--0--0-0--0-0--0--|--0-0--0-0--0-----------0--|


                                                                             
----------------------------|---------------------------|-------------------|
----------------------------|---------------------------|-------------------|
----------------------------|------------------2--4--5--|-------------------|
--4-4--4-4--2--4-4--4-4--2--|--4-4--4-4--2--4--2--4--5--|--4----------------|
--4-4--4-4--2--4-4--4-4--2--|--4-4--4-4--2--4--0--2--3--|--4----------------|
--2-2--2-2--0--2-2--2-2--0--|--2-2--2-2--0--2-----------|--2----------------|


                                                                                
-------------------|-------------------|-------------------|-------------------|
-------------------|-------------------|-------------------|-------------------|
--7----------------|--2----------------|--9----------------|-------------------|
--7----------------|--2----------------|--9----------------|--4----------------|
--5----------------|--0----------------|--7----------------|--4----------------|
-------------------|-------------------|-------------------|--2----------------|


                                                             
-------------------|-------------------|--------------------|
-------------------|-------------------|--------------------|
--7----------------|--9----------------|--7--------9--------|
--7----------------|--9----------------|--7--------9--------|
--5----------------|--7----------------|--5--------7--------|
-------------------|-------------------|--------------------|


                                                            
-------------------|-------------------|-------------------|
-------------------|-------------------|-------------------|
-------------------|--9----------------|--4----------------|
--6----------------|--9----------------|--4----------------|
--6----------------|--7----------------|--2----------------|
--4----------------|-------------------|-------------------|


                                                             
--------------------|-------------------|-------------------|
--------------------|-------------------|-------------------|
--11----------------|-------------------|--9----------------|
--11----------------|--6----------------|--9----------------|
--9-----------------|--6----------------|--7----------------|
--------------------|--4----------------|-------------------|


                                                                        
--------------------|---------------------|----------------------------|
--------------------|---------------------|----------------------------|
--11----------------|--9--------11--------|----------------------------|
--11----------------|--9--------11--------|--4-4--4-4--2--4-4--4-4--2--|
--9-----------------|--7--------9---------|--4-4--4-4--2--4-4--4-4--2--|
--------------------|---------------------|--2-2--2-2--0--2-2--2-2--0--|


                                                         
---------------------------|----------------------------|
---------------------------|----------------------------|
------------------2--4--5--|----------------------------|
--4-4--4-4--2--4--2--4--5--|--4-4--4-4--2--4-4--4-4--2--|
--4-4--4-4--2--4--0--2--3--|--4-4--4-4--2--4-4--4-4--2--|
--2-2--2-2--0--2-----------|--2-2--2-2--0--2-2--2-2--0--|


                                                                    
----------------------------|------------------|-------------------|
----------------------------|------------------|-------------------|
----------------------------|------------------|--6----------------|
--4--------------4---3---2--|------------------|--6----------------|
--4--------------4---3---2--|------------------|--4----------------|
--2--2-2-2-2-2-2-2---1---0--|------------------|-------------------|

[ Tab from: http://www.guitartabs.cc/tabs/m/machinae_supremacy/jets_n_guns_theme_tab.html ]
                                                                                
-------------------|-------------------|-------------------|-------------------|
-------------------|-------------------|-------------------|-------------------|
--7----------------|--2----------------|--4----------------|--6----------------|
--7----------------|--2----------------|--4----------------|--6----------------|
--5----------------|--0----------------|--2----------------|--4----------------|
-------------------|-------------------|-------------------|-------------------|


                                                                                
-------------------|-------------------|-------------------|-------------------|
-------------------|-------------------|-------------------|-------------------|
--7----------------|--2----------------|--4----------------|--6----------------|
--7----------------|--2----------------|--4----------------|--6----------------|
--5----------------|--0----------------|--2----------------|--4----------------|
-------------------|-------------------|-------------------|-------------------|


                                                                                
-------------------|-------------------|-------------------|-------------------|
-------------------|-------------------|-------------------|-------------------|
--7----------------|--9----------------|--2----------------|-------------------|
--7----------------|--9----------------|--2----------------|--4/---------------|
--5----------------|--7----------------|--0----------------|--4/---------------|
-------------------|-------------------|-------------------|--2/---------------|


                                                                                
------------------|------------------|---------------------|-------------------|
------------------|------------------|---------------------|-------------------|
------------------|------------------|---------------------|-------------------|
------------------|------------------|----4---2---4--------|--4----------------|
------------------|------------------|----4---2---4--------|--4----------------|
------------------|------------------|----2---0---2--------|--2----------------|


                                                                                
-------------------|-------------------|-------------------|-------------------|
-------------------|-------------------|-------------------|-------------------|
--7----------------|--2----------------|--9----------------|-------------------|
--7----------------|--2----------------|--9----------------|--4----------------|
--5----------------|--0----------------|--7----------------|--4----------------|
-------------------|-------------------|-------------------|--2----------------|


                                                             
-------------------|-------------------|--------------------|
-------------------|-------------------|--------------------|
--7----------------|--9----------------|--7--------9--------|
--7----------------|--9----------------|--7--------9--------|
--5----------------|--7----------------|--5--------7--------|
-------------------|-------------------|--------------------|


                                                            
-------------------|-------------------|-------------------|
-------------------|-------------------|-------------------|
-------------------|--9----------------|--4----------------|
--6----------------|--9----------------|--4----------------|
--6----------------|--7----------------|--2----------------|
--4----------------|-------------------|-------------------|


                                                             
--------------------|-------------------|-------------------|
--------------------|-------------------|-------------------|
--11----------------|-------------------|--9----------------|
--11----------------|--6----------------|--9----------------|
--9-----------------|--6----------------|--7----------------|
--------------------|--4----------------|-------------------|


                                                                            
--------------------|---------------------|----------|---------------------|
--------------------|---------------------|----------|---------------------|
--11----------------|--9--------11--------|----------|---------------------|
--11----------------|--9--------11--------|----------|----4---2---4--------|
--9-----------------|--7--------9---------|----------|----4---2---4--------|
--------------------|---------------------|----------|----2---0---2--------|


                                                                     
---------------------|---------------------|------------------------|
---------------------|---------------------|------------------------|
---------------------|---------------------|-------------------6----|
----4---2---4--------|----4---2---4--------|------4---3---2----6----|
----4---2---4--------|----4---2---4--------|------4---3---2----4----|
----2---0---2--------|----2---0---2--------|--2-2-2---1---0---------|


                                                                  
---------------------|---------------------|---------------------|
---------------------|---------------------|---------------------|
---------------------|---------------------|---------------------|
----4---2---4--------|----4---2---4--------|----4---2---4--------|
----4---2---4--------|----4---2---4--------|----4---2---4--------|
----2---0---2--------|----2---0---2--------|----2---0---2--------|


                                        
-------------------------|------------||
-------------------------|------------||
-----------------6---5---|--4-----4---||
------4---3---2--6---5---|--4-----4---||
------4---3---2--4---3---|--2-----2---||
--2-2-2---1---0----------|------------||


Comments