Machinae Supremacy - Hero Chords & Tabs

 

Hero Chords & Tabs

Machinae Supremacy Chords & Tabs

Version: 1 Type: Tab 0 ratings
1 star 2 stars 3 stars 4 stars 5 stars
comments

Hero Tab

Artist: Machinae Supremacy
Song: Hero
TAB Author: Unknwon (Found on machinaesupremacy.com forums)
Posted By: SynDRomE

I converted this with Guitar Pro 4 :D Hope u like it :D

Jonne



                                                                          
E||----------|----------------------------|------------------------------|
B||----------|----------------------------|------------------------------|
G||----------|--9------------7--9---------|--7-------------7-------------|
D||----------|-----7--10--7--------9--10--|---------9--10-----10--9--10--|
A||----------|----------------------------|-----10-----------------------|
E||----------|----------------------------|------------------------------|


                                                             
-----------------------------|------------------------------|
-----------------------------|------------------------------|
--9---------9--10--9--7------|--7-------------7-------------|
-----7--10---------------10--|---------9--10-----10--9--10--|
-----------------------------|-----10-----------------------|
-----------------------------|------------------------------|


                                                            
----------------------------|------------------------------|
----------------------------|------------------------------|
--9------------7--9---------|--7-------------7-------------|
-----7--10--7--------9--10--|---------9--10-----10--9--10--|
----------------------------|-----10-----------------------|
----------------------------|------------------------------|


                                                             
-----------------------------|------------------------------|
-----------------------------|------------------------------|
--9---------9--10--9--7------|--7-------------7-------------|
-----7--10---------------10--|---------9--10-----10--9--10--|
-----------------------------|-----10-----------------------|
-----------------------------|------------------------------|


                                                            
----------------------------|------------------------------|
----------------------------|------------------------------|
--9------------7--9---------|--7-------------7-------------|
-----7--10--7--------9--10--|---------9--10-----10--9--10--|
----------------------------|-----10-----------------------|
----------------------------|------------------------------|


                                                             
-----------------------------|------------------------------|
-----------------------------|------------------------------|
--9---------9--10--9--7------|--7-------------7-------------|
-----7--10---------------10--|---------9--10-----10--9--10--|
-----------------------------|-----10-----------------------|
-----------------------------|------------------------------|


                                                            
----------------------------|------------------------------|
----------------------------|------------------------------|
--9------------7--9---------|--7-------------7-------------|
-----7--10--7--------9--10--|---------9--10-----10--9--10--|
----------------------------|-----10-----------------------|
----------------------------|------------------------------|


                                                             
-----------------------------|------------------------------|
-----------------------------|------------------------------|
--9---------9--10--9--7------|--7-------------7-------------|
-----7--10---------------10--|---------9--10-----10--9--10--|
-----------------------------|-----10-----------------------|
-----------------------------|------------------------------|


                                                                                
--------------------|------------------|-------------------|-------------------|
--10----------------|------------------|-------------------|-------------------|
--------------------|------------------|--9----------------|--9----------------|
--7-----------------|------------------|--7----------------|--7----------------|
--------------------|------------------|--0----------------|--0----------------|
--------------------|------------------|-------------------|-------------------|


                                                            
-------------------|-------------------|-------------------|
-------------------|-------------------|-------------------|
--2----------------|-------------------|--7----------------|
--2----------------|--5----------------|--7----------------|
--0----------------|--5----------------|--5----------------|
-------------------|--3----------------|-------------------|


                                                             
--------------------|-------------------|-------------------|
--------------------|-------------------|-------------------|
--5-----------------|--2----------------|-------------------|
--5--------5--------|--2----------------|--5----------------|
--3--------5--------|--0----------------|--5----------------|
-----------3--------|-------------------|--3----------------|


                                                             
-------------------|--------------------|-------------------|
-------------------|--------------------|-------------------|
--7----------------|--7--------7--------|--2----------------|
--7----------------|--7--------7--------|--2----------------|
--5----------------|--5--------5--------|--0----------------|
-------------------|--------------------|-------------------|


                                                             
-------------------|-------------------|--------------------|
-------------------|-------------------|--------------------|
-------------------|--7----------------|--5-----------------|
--5----------------|--7----------------|--5--------5--------|
--5----------------|--5----------------|--3--------5--------|
--3----------------|-------------------|-----------3--------|


                                                            
-------------------|-------------------|-------------------|
-------------------|-------------------|-------------------|
--2----------------|-------------------|-------------------|
--2----------------|--5----------------|--3----------------|
--0----------------|--5----------------|--3----------------|
-------------------|--3----------------|--1----------------|


                                                                           
-------------------------|-------------------|----------------------------|
-------------------------|-------------------|----------------------------|
-------------------------|-------------------|--9------------7--9---------|
--5----------------------|--7----------------|-----7--10--7--------9--10--|
--5----5--5--5--5--5--5--|--7----------------|----------------------------|
--3----3--3--3--3--3--3--|--5----------------|----------------------------|


                                                                 
------------------------------|---------------------------------|
------------------------------|---------------------------------|
--7-------------7-------------|--9---------9--10--9h10p9-7------|
---------9--10-----10--9--10--|-----7--10-------------------10--|
-----10-----------------------|---------------------------------|
------------------------------|---------------------------------|


                                                            
------------------------------|----------------------------|
------------------------------|----------------------------|
--7-------------7-------------|--9------------7--9---------|
---------9--10-----10--9--10--|-----7--10--7--------9--10--|
-----10-----------------------|----------------------------|
------------------------------|----------------------------|


                                                             
------------------------------|-----------------------------|
------------------------------|-----------------------------|
--7-------------7-------------|--9---------9--10--9--7------|
---------9--10-----10--9--10--|-----7--10---------------10--|
-----10-----------------------|-----------------------------|
------------------------------|-----------------------------|


                                                            
------------------------------|----------------------------|
------------------------------|----------------------------|
--7-------------7-------------|--9------------7--9---------|
---------9--10-----10--9--10--|-----7--10--7--------9--10--|
-----10-----------------------|----------------------------|
------------------------------|----------------------------|


                                                             
------------------------------|-----------------------------|
------------------------------|-----------------------------|
--7-------------7-------------|--9---------9--10--9--7------|
---------9--10-----10--9--10--|-----7--10---------------10--|
-----10-----------------------|-----------------------------|
------------------------------|-----------------------------|


                                                            
------------------------------|----------------------------|
------------------------------|----------------------------|
--7-------------7-------------|--9------------7--9---------|
---------9--10-----10--9--10--|-----7--10--7--------9--10--|
-----10-----------------------|----------------------------|
------------------------------|----------------------------|


                                                             
------------------------------|-----------------------------|
------------------------------|-----------------------------|
--7-------------7-------------|--9---------9--10--9--7------|
---------9--10-----10--9--10--|-----7--10---------------10--|
-----10-----------------------|-----------------------------|
------------------------------|-----------------------------|


                                                                    
----------------------------|-------------------|------------------|
----------------------------|-------------------|------------------|
--7-------------7-----------|-------------------|------------------|
---------9--10-----10--9b---|------7~-----------|------------------|
-----10---------------------|-------------------|------------------|
----------------------------|-------------------|------------------|


                                                                    
------------------|-------------------||---------------------------|
------------------|-------------------||---------------------------|
------------------|-------------------||*--2--------2--------2-----|
------------------|--7/---------------||*--2--------2--------2-----|
------------------|--7/---------------||---0--0--0--0--0--0--0--0--|
------------------|--5/---------------||---------------------------|


                                                      
--------------------------|--------------------------|
--------------------------|--------------------------|
--2--------2--------2-----|--------------------------|
--2--------2--------2-----|--2--------2--------2-----|
--0--0--0--0--0--0--0--0--|--2--------2--------2-----|
--------------------------|--0--0--0--0--0--0--0--0--|


                                                      
--------------------------|--------------------------|
--------------------------|--------------------------|
--------------------------|--------------------------|
--2--------2--------2-----|--3--------3--------3-----|
--2--------2--------2-----|--3--------3--------3-----|
--0--0--0--0--0--0--0--0--|--1--1--1--1--1--1--1--1--|


                                                      
--------------------------|--------------------------|
--------------------------|--------------------------|
--------------------------|--5--------5--------5-----|
--3--------3--------3-----|--5--------5--------5-----|
--3--------3--------3-----|--3--3--3--3--3--3--3--3--|
--1--1--1--1--1--1--1--1--|--------------------------|


                                                         
-------------------------||-----------------------------|
-------------------------||-----------------------------|
--5-----------5/--------*||*--9------------7--9---------|
--5-----------5/---5----*||*-----7--10--7--------9--10--|
--3--3--3--3--3/---5-----||-----------------------------|
-------------------3-----||-----------------------------|


                                                             
------------------------------|-----------------------------|
------------------------------|-----------------------------|
--7-------------7-------------|--9---------9--10--9--7------|
---------9--10-----10--9--10--|-----7--10---------------10--|
-----10-----------------------|-----------------------------|
------------------------------|-----------------------------|


                                                            
------------------------------|----------------------------|
------------------------------|----------------------------|
--7-------------7-------------|--9------------7--9---------|
---------9--10-----10--9--10--|-----7--10--7--------9--10--|
-----10-----------------------|----------------------------|
------------------------------|----------------------------|


                                                             
------------------------------|-----------------------------|
------------------------------|-----------------------------|
--7-------------7-------------|--9---------9--10--9--7------|
---------9--10-----10--9--10--|-----7--10---------------10--|
-----10-----------------------|-----------------------------|
------------------------------|-----------------------------|


                                                                        
-------------------------------||-------------------|------------------|
-------------------------------||-------------------|------------------|
--7-------------7-------------*||-------------------|------------------|
---------9--10-----10--9--10--*||--7~---------------|------------------|
-----10------------------------||-------------------|------------------|
-------------------------------||-------------------|------------------|


                                                                            
------------------|------------------|------------------|------------------|
------------------|------------------|------------------|------------------|
------------------|------------------|------------------|------------------|
------------------|------------------|------------------|------------------|
------------------|------------------|------------------|------------------|
------------------|------------------|------------------|------------------|

[ Tab from: http://www.guitartabs.cc/tabs/m/machinae_supremacy/hero_tab.html ]
                                                        
|---------------------------|--------------------------|
|---------------------------|--------------------------|
|*--2--------2--------2-----|--2--------2--------2-----|
|*--2--------2--------2-----|--2--------2--------2-----|
|---0--0--0--0--0--0--0--0--|--0--0--0--0--0--0--0--0--|
|---------------------------|--------------------------|


                                                      
--------------------------|--------------------------|
--------------------------|--------------------------|
--------------------------|--------------------------|
--2--------2--------2-----|--2--------2--------2-----|
--2--------2--------2-----|--2--------2--------2-----|
--0--0--0--0--0--0--0--0--|--0--0--0--0--0--0--0--0--|


                                                      
--------------------------|--------------------------|
--------------------------|--------------------------|
--------------------------|--------------------------|
--3--------3--------3-----|--3--------3--------3-----|
--3--------3--------3-----|--3--------3--------3-----|
--1--1--1--1--1--1--1--1--|--1--1--1--1--1--1--1--1--|


                                                      
--------------------------|-------------------------||
--------------------------|-------------------------||
--5--------5--------5-----|--5-----------5/--------*||
--5--------5--------5-----|--5-----------5/---5----*||
--3--3--3--3--3--3--3--3--|--3--3--3--3--3/---5-----||
--------------------------|-------------------3-----||


                                                      
--------------------------|--------------------------|
--------------------------|--------------------------|
--2--------2--------2-----|--2--------2--------2-----|
--2--------2--------2-----|--2--------2--------2-----|
--0--0--0--0--0--0--0--0--|--0--0--0--0--0--0--0--0--|
--------------------------|--------------------------|


                                                              
|-----------------------------|------------------------------|
|-----------------------------|------------------------------|
|*--9------------7--9---------|--7-------------7-------------|
|*-----7--10--7--------9--10--|---------9--10-----10--9--10--|
|-----------------------------|-----10-----------------------|
|-----------------------------|------------------------------|


                                                             
-----------------------------|------------------------------|
-----------------------------|------------------------------|
--9---------9--10--9--7------|--7-------------7-------------|
-----7--10---------------10--|---------9--10-----10--9--10--|
-----------------------------|-----10-----------------------|
-----------------------------|------------------------------|


                                                            
----------------------------|------------------------------|
----------------------------|------------------------------|
--9------------7--9---------|--7-------------7-------------|
-----7--10--7--------9--10--|---------9--10-----10--9--10--|
----------------------------|-----10-----------------------|
----------------------------|------------------------------|


                                                               
-----------------------------|-------------------------------||
-----------------------------|-------------------------------||
--9---------9--10--9--7------|--7-------------7-------------*||
-----7--10---------------10--|---------9--10-----10--9--10--*||
-----------------------------|-----10------------------------||
-----------------------------|-------------------------------||


                                                              
------------------------------||-----------------------------|
------------------------------||-----------------------------|
--7-------------7-------------||*--9------------7--9---------|
---------9--10-----10--9--10--||*-----7--10--7--------9--10--|
-----10-----------------------||-----------------------------|
------------------------------||-----------------------------|


                                                             
------------------------------|-----------------------------|
------------------------------|-----------------------------|
--7-------------7-------------|--9---------9--10--9--7------|
---------9--10-----10--9--10--|-----7--10---------------10--|
-----10-----------------------|-----------------------------|
------------------------------|-----------------------------|


                                                            
------------------------------|----------------------------|
------------------------------|----------------------------|
--7-------------7-------------|--9------------7--9---------|
---------9--10-----10--9--10--|-----7--10--7--------9--10--|
-----10-----------------------|----------------------------|
------------------------------|----------------------------|


                                                             
------------------------------|-----------------------------|
------------------------------|-----------------------------|
--7-------------7-------------|--9---------9--10--9--7------|
---------9--10-----10--9--10--|-----7--10---------------10--|
-----10-----------------------|-----------------------------|
------------------------------|-----------------------------|


                                                                
-------------------------------||------------------------------|
-------------------------------||------------------------------|
--7-------------7-------------*||--7-------------7-------------|
---------9--10-----10--9--10--*||---------9--10-----10--9--10--|
-----10------------------------||-----10-----------------------|
-------------------------------||------------------------------|


                                                              
-------------------|--------------------|--------------------|
-------------------|----------12r-------|--10----------------|
--9~---------------|--------------------|--------------------|
-------------------|--------------------|--------------------|
-------------------|--------------------|--------------------|
-------------------|--------------------|--------------------|


                                                                            
------------------|------------------|------------------|------------------|
------------------|------------------|------------------|------------------|
------------------|------------------|------------------|------------------|
------------------|------------------|------------------|------------------|
------------------|------------------|------------------|------------------|
------------------|------------------|------------------|------------------|


                                                                            
------------------|------------------|------------------|------------------|
------------------|------------------|------------------|------------------|
------------------|------------------|------------------|------------------|
------------------|------------------|------------------|------------------|
------------------|------------------|------------------|------------------|
------------------|------------------|------------------|------------------|


                                                                            
------------------|------------------|------------------|------------------|
------------------|------------------|------------------|------------------|
------------------|------------------|------------------|------------------|
------------------|------------------|------------------|------------------|
------------------|------------------|------------------|------------------|
------------------|------------------|------------------|------------------|


                                                         
------------------|------------------|------------------|
------------------|------------------|------------------|
------------------|------------------|------------------|
------------------|------------------|------------------|
------------------|------------------|------------------|
------------------|------------------|------------------|


                                                               
----------------------------|---------------------------------|
----------------------------|---------------------------------|
------9------------------9--|--------------------------9--10--|
--10-----12--10------10-----|--12--10----10-10-10--12---------|
----------------------------|---------------------------------|
----------------------------|---------------------------------|


                                                      
---------------------------|-------------------------|
---------------------------|-------------------------|
--9------------------------|-------------------------|
---------12-12-12------9-9-|--9----------------------|
---------------------------|---------11-11-11--------|
---------------------------|-------------------------|


                                                                  
------------------------------|----------------------------------|
------------------------------|----------------------------------|
------14------------------14--|--------------------------14--16--|
--15------17--15------15------|--17--15----15-15-15--17----------|
------------------------------|----------------------------------|
------------------------------|----------------------------------|


                                                                               
----------------------------|--------------------|----------------------------|
----------------------------|--------------------|----------------------------|
--14------------------------|----------17r-------|------9------------------9--|
--------17--17----14--17----|--------------------|--10-----12--10------10-----|
----------------------------|--------------------|----------------------------|
----------------------------|--------------------|----------------------------|


                                                                
---------------------------------|-----------------------------|
---------------------------------|-----------------------12-12-|
--------------------------9--10--|--9------12-12-12------------|
--12--10----10-10-10--12---------|-----------------------------|
---------------------------------|-----------------------------|
---------------------------------|-----------------------------|


                                                          
----------12-12-12--------|------------------------------|
--12----------------------|------------------------------|
--------------------------|------14------------------14--|
--------------------------|--15------17--15------15------|
--------------------------|------------------------------|
--------------------------|------------------------------|


                                                                
----------------------------------|----------------------------|
----------------------------------|----------------------------|
--------------------------14--16--|--17----17--17----16--17----|
--17--15----15-15-15--17----------|----------------------------|
----------------------------------|----------------------------|
----------------------------------|----------------------------|


                                                                         
------------------------15----------------|-----------------------------|
---------------15-17-18----18-17-15-17-18-|--5--------------------------|
------14-16-17----------------------------|--14------------7--9---------|
------------------------------------------|------7--10--7--------9--10--|
------------------------------------------|-----------------------------|
------------------------------------------|-----------------------------|


                                                             
------------------------------|-----------------------------|
------------------------------|-----------------------------|
--7-------------7-------------|--9---------9--10--9--7------|
---------9--10-----10--9--10--|-----7--10---------------10--|
-----10-----------------------|-----------------------------|
------------------------------|-----------------------------|


                                                            
------------------------------|----------------------------|
------------------------------|----------------------------|
--7-------------7-------------|--9------------7--9---------|
---------9--10-----10--9--10--|-----7--10--7--------9--10--|
-----10-----------------------|----------------------------|
------------------------------|----------------------------|


                                                             
------------------------------|-----------------------------|
------------------------------|-----------------------------|
--7-------------7-------------|--9---------9--10--9--7------|
---------9--10-----10--9--10--|-----7--10---------------10--|
-----10-----------------------|-----------------------------|
------------------------------|-----------------------------|


                                                            
------------------------------|----------------------------|
------------------------------|----------------------------|
--7-------------7-------------|--9------------7--9---------|
---------9--10-----10--9--10--|-----7--10--7--------9--10--|
-----10-----------------------|----------------------------|
------------------------------|----------------------------|


                                                             
------------------------------|-----------------------------|
------------------------------|-----------------------------|
--7-------------7-------------|--9---------9--10--9--7------|
---------9--10-----10--9--10--|-----7--10---------------10--|
-----10-----------------------|-----------------------------|
------------------------------|-----------------------------|


                                                            
------------------------------|----------------------------|
------------------------------|----------------------------|
--7-------------7-------------|--9------------7--9---------|
---------9--10-----10--9--10--|-----7--10--7--------9--10--|
-----10-----------------------|----------------------------|
------------------------------|----------------------------|


                                                             
------------------------------|-----------------------------|
------------------------------|-----------------------------|
--7-------------7-------------|--9---------9--10--9--7------|
---------9--10-----10--9--10--|-----7--10---------------10--|
-----10-----------------------|-----------------------------|
------------------------------|-----------------------------|


                                
------------------------------||
------------------------------||
--7-------------7-------------||
---------9--10-----10--9--10--||
-----10-----------------------||
------------------------------||


Comments