Machinae Supremacy - Blind Dog Pride Chords & Tabs

 

Blind Dog Pride Chords & Tabs

Machinae Supremacy Chords & Tabs

Version: 1 Type: Tab 0 ratings
1 star 2 stars 3 stars 4 stars 5 stars
comments

Blind Dog Pride Tab

Artist: Machinae Supremacy
Song: Blind Dog Pride
TAB Author: Unknwon (Found on machinaesupremacy.com forums)
Posted By: SynDRomE

I converted this with Guitar Pro 4 :D Hope u like it :D

Robert
                                                              
E||--------------------|------------------|------------------|
B||--------------------|------------------|------------------|
G||--------------------|------------------|------------------|
D||--2--2--------------|------------------|------------------|
A||--2--2--------------|------------------|------------------|
E||--0--0--------------|------------------|------------------|


                                                                            
------------------|------------------|------------------|------------------|
------------------|------------------|------------------|------------------|
------------------|------------------|------------------|------------------|
------------------|------------------|------------------|------------------|
------------------|------------------|------------------|------------------|
------------------|------------------|------------------|------------------|


                                                                          
---------------------|--------------------------|------------------------|
---------------------|--------------------------|------------------------|
---------------------|--------------------------|--------------4----4----|
---------------------|--4--2--2--2--2--2--2--2--|--4--2--2--2--4----4----|
--------------15/-0--|--4--2--2--2--2--2--2--2--|--4--2--2--2--2----2----|
--------------15/-0--|--2--0--0--0--0--0--0--0--|--2--0--0--0------------|


                                                      
--------------------------|--------------------------|
--------------------------|--------------------------|
--------------------------|--------------------------|
--4--4--4--4--4--4--4--4--|--4--4--4--4--4--4--4--4--|
--4--4--4--4--4--4--4--4--|--4--4--4--4--4--4--4--4--|
--2--2--2--2--2--2--2--2--|--2--2--2--2--2--2--2--2--|


                                                                             
--------------------------|----------------------|--------------------------|
--------------------------|----------------------|--------------------------|
--------------------------|----------------------|--4--4--4--4--4--4--4--4--|
--2--2--2--2--2--2--2--2--|--2----4----5----7----|--4--4--4--4--4--4--4--4--|
--2--2--2--2--2--2--2--2--|--2----4----5----7----|--2--2--2--2--2--2--2--2--|
--0--0--0--0--0--0--0--0--|--0----2----3----5----|--------------------------|

[ Tab from: http://www.guitartabs.cc/tabs/m/machinae_supremacy/blind_dog_pride_tab.html ]
                                                                               
--------------------------|--------------------------|------------------------|
--------------------------|--------------------------|------------------------|
--4--4--4--4--4--4--4--4--|--------------------------|--------------4----4----|
--4--4--4--4--4--4--4--4--|--4--2--2--2--2--2--2--2--|--4--2--2--2--4----4----|
--2--2--2--2--2--2--2--2--|--4--2--2--2--2--2--2--2--|--4--2--2--2--2----2----|
--------------------------|--2--0--0--0--0--0--0--0--|--2--0--0--0------------|


                                                      
--------------------------|--------------------------|
--------------------------|--------------------------|
--------------------------|--------------------------|
--4--4--4--4--4--4--4--4--|--4--4--4--4--4--4--4--4--|
--4--4--4--4--4--4--4--4--|--4--4--4--4--4--4--4--4--|
--2--2--2--2--2--2--2--2--|--2--2--2--2--2--2--2--2--|


                                                                             
--------------------------|----------------------|--------------------------|
--------------------------|----------------------|--------------------------|
--------------------------|-------2----4----7----|--4--4--4--4--4--4--4--4--|
--2--2--2--2--2--2--2--2--|--5----2----4----7----|--4--4--4--4--4--4--4--4--|
--2--2--2--2--2--2--2--2--|--5----0----2----5----|--2--2--2--2--2--2--2--2--|
--0--0--0--0--0--0--0--0--|--3-------------------|--------------------------|


                                                                            
--------------------------|-------------------||---------------------------|
--------------------------|-------------------||---------------------------|
--4--4--4--4--4--4--4--4--|--4/---------------||*--4-----------4-----------|
--4--4--4--4--4--4--4--4--|--4/---------------||*--4-----------4-----------|
--2--2--2--2--2--2--2--2--|--2/---------------||---2--------0--2--------0--|
--------------------------|-------------------||------0--3--------0--3-----|


                                                                         
--------------------------|----------------------|----------------------|
--------------------------|----------------------|----------------------|
--4-----------4-----------|----------------------|----------------------|
--4-----------4-----------|--4----4----4----4----|--4----4----4----4----|
--2--------0--2--------0--|--4----4----4----4----|--4----4----4----4----|
-----0--3--------0--3-----|--2----2----2----2----|--2----2----2----2----|


                                                                               
--------------------------|--------------------------|-----------------------||
--------------------------|--------------------------|-----------------------||
--4-----------4-----------|--4-----------4-----------|--4----4----4----4----*||
--4-----------4-----------|--4-----------4-----------|--4----4----4----4----*||
--2--------0--2--------0--|--2--------0--2-----3--5--|--2----2----2----2-----||
-----0--3--------0--3-----|-----0--3--------0--------|-----------------------||


                                                                
----------------------|----|----|----|----|----|----|----|----||
----------------------|----|----|----|----|----|----|----|----||
--4----4----4----4----|----|----|----|----|----|----|----|----||
--4----4----4----4----|----|----|----|----|----|----|----|----||
--2----2----2----2----|----|----|----|----|----|----|----|----||
----------------------|----|----|----|----|----|----|----|----||


Comments