Machetazo - Suicide Fuck Chords & Tabs

 

Suicide Fuck Chords & Tabs

Machetazo Chords & Tabs

Version: 1 Type: Tab 0 ratings
1 star 2 stars 3 stars 4 stars 5 stars
comments

Suicide Fuck Tab

   
Band:  Machetazo
Album: Carne De Cementerio
Song:  Suicide Fuck (abscess cover)

Transcribed By: Pablo1349


.  - palm mute           /  - slide up to
\  - slide down to       ~  - vibrato
h  - hammer on           b  - Bend
p  - pull off            Suffixes for bend
t  - tap                 f  - full bend    h - half bend
ph - pinched harmonic    q  - quarter bend t - tap bend
*  - see comment         ^  - Hold bend    r release bend
x  - Stuccatto           ~  - vibrato bend
,  - slight palm mute    () - ghost note, sustained note
"  - tremolo note        <> - Trill

Tuning B E A D F# B

|--------------------------------------------------------------------|
|--------------------------------------------------------------------|
|--------------------------------------------------------------------|
|-2--2-2-2-2-2-2-2-2-2-2--2-2-2--2--2-2-2-2-2-2-2-2-2-2--------------|
|-0--0-0-0-0-0-0-0-0-0-0--0-0-0--0--0-0-0-0-0-0-0-0-0-0--------------|
|--------------------------------------------------------Pick Slide--|

Verse
|---------------------------------------------------------|
|---------------------------------------------------------|
|---------------------------------------------------------|
|-2--2-2-2-2-2-2-2-2-2-2--2-2-2-------3--3-3-3------3-3-3-|
|-0--0-0-0-0-0-0-0-0-0-0--0-0-0--3--3-1--1-1-1-3--3-1-1-1-|x4
|--------------------------------1--1----------1--1-------|


Suicide Fuck, Suicide Fuck!!!...
|-------------------------------------------------------------|
|-------------------------------------------------------------|
|-------------------------------------------------------------|
|-2--2-2-2-2-2-2------------------3--3-3-3-3-3-3-3------------|
|-0--0-0-0-0-0-0-5--5-5-5-5-5-5-5-1--1-1-1-1-1-1-1-3--3-3--5--|
|----------------3--3-3-3-3-3-3-3------------------1--1-1--3--|
                                                      .
|------------------------------------------------------------|
|------------------------------------------------------------|
|------------------------------------------------------------|
|-2--2-2-2-2-2-2------------------3--3-3-3-3-3-3-3-3-3-------|
|-0--0-0-0-0-0-0-5--5-5-5-5-5-5-5-1--1-1-1-1-1-1-1-1-1-3--5--|
|----------------3--3-3-3-3-3-3-3----------------------1--3--|
|-------------------------------------------------------------|
|-------------------------------------------------------------|
|-------------------------------------------------------------|
|-2--2-2-2-2-2-2------------------3--3-3-3-3-3-3-3------------|
|-0--0-0-0-0-0-0-5--5-5-5-5-5-5-5-1--1-1-1-1-1-1-1-3--3-3--5--|
|----------------3--3-3-3-3-3-3-3------------------1--1-1--3--|
                                                      .
|------------------------------------------------------------|
|------------------------------------------------------------|
|------------------------------------------------------------|
|-2--2-2-2-2-2-2------------------3--3-3-3-3-3-3-3-3-3-------|
|-0--0-0-0-0-0-0-5--5-5-5-5-5-5-5-1--1-1-1-1-1-1-1-1-1-3--5--|
|----------------3--3-3-3-3-3-3-3----------------------1--3--|

Verse
|---------------------------------------------------------|
|---------------------------------------------------------|
|---------------------------------------------------------|
|-2--2-2-2-2-2-2-2-2-2-2--2-2-2-------3--3-3-3------3-3-3-|
|-0--0-0-0-0-0-0-0-0-0-0--0-0-0--3--3-1--1-1-1-3--3-1-1-1-|x4
|--------------------------------1--1----------1--1-------|

[ Tab from: http://www.guitartabs.cc/tabs/m/machetazo/suicide_fuck_tab.html ]
Suicide Fuck, Suicide Fuck!!!...
|-------------------------------------------------------------|
|-------------------------------------------------------------|
|-------------------------------------------------------------|
|-2--2-2-2-2-2-2------------------3--3-3-3-3-3-3-3------------|
|-0--0-0-0-0-0-0-5--5-5-5-5-5-5-5-1--1-1-1-1-1-1-1-3--3-3--5--|
|----------------3--3-3-3-3-3-3-3------------------1--1-1--3--|
                                                      .
|------------------------------------------------------------|
|------------------------------------------------------------|
|------------------------------------------------------------|
|-2--2-2-2-2-2-2------------------3--3-3-3-3-3-3-3-3-3-------|
|-0--0-0-0-0-0-0-5--5-5-5-5-5-5-5-1--1-1-1-1-1-1-1-1-1-3--5--|
|----------------3--3-3-3-3-3-3-3----------------------1--3--|
|-------------------------------------------------------------|
|-------------------------------------------------------------|
|-------------------------------------------------------------|
|-2--2-2-2-2-2-2------------------3--3-3-3-3-3-3-3------------|
|-0--0-0-0-0-0-0-5--5-5-5-5-5-5-5-1--1-1-1-1-1-1-1-3--3-3--5--|
|----------------3--3-3-3-3-3-3-3------------------1--1-1--3--|
                                                      .
|------------------------------------------------------------|
|------------------------------------------------------------|
|------------------------------------------------------------|
|-2--2-2-2-2-2-2------------------3--3-3-3-3-3-3-3-3-3-------|
|-0--0-0-0-0-0-0-5--5-5-5-5-5-5-5-1--1-1-1-1-1-1-1-1-1-3--5--|
|----------------3--3-3-3-3-3-3-3----------------------1--3--|

|---------------------------------------------------|
|---------------------------------------------------|
|---------------------------------------------------|
|---------------------------------------------------|
|-2--2-2-2-2-2-2-2-2-2-2-2--8/7--8/7--8/7--8/7--7-8-|x4
|-0--0-0-0-0-0-0-0-0-0-0-0--6/5-06/5-06/5-06/5-05-6-|
     . . . . . . . . . . .

Solo (Rythm):

|-------------------------------------------------------------|
|-------------------------------------------------------------|
|-------------------------------------------------------------|
|-2--2-2-2-2-2-2------------------3--3-3-3-3-3-3-3------------|
|-0--0-0-0-0-0-0-5--5-5-5-5-5-5-5-1--1-1-1-1-1-1-1-3--3-3--5--|
|----------------3--3-3-3-3-3-3-3------------------1--1-1--3--|
                                                      .
|------------------------------------------------------------|
|------------------------------------------------------------|
|------------------------------------------------------------|
|-2--2-2-2-2-2-2------------------3--3-3-3-3-3-3-3-3-3-------|
|-0--0-0-0-0-0-0-5--5-5-5-5-5-5-5-1--1-1-1-1-1-1-1-1-1-3--5--|
|----------------3--3-3-3-3-3-3-3----------------------1--3--|
|-------------------------------------------------------------|
|-------------------------------------------------------------|
|-------------------------------------------------------------|
|-2--2-2-2-2-2-2------------------3--3-3-3-3-3-3-3------------|
|-0--0-0-0-0-0-0-5--5-5-5-5-5-5-5-1--1-1-1-1-1-1-1-3--3-3--5--|
|----------------3--3-3-3-3-3-3-3------------------1--1-1--3--|
                                                      .
|------------------------------------------------------------|
|------------------------------------------------------------|
|------------------------------------------------------------|
|-2--2-2-2-2-2-2------------------3--3-3-3-3-3-3-3-3-3-------|
|-0--0-0-0-0-0-0-5--5-5-5-5-5-5-5-1--1-1-1-1-1-1-1-1-1-3--5--|
|----------------3--3-3-3-3-3-3-3----------------------1--3--|
Comments