Macabre - In The Army Now Chords & Tabs

 

In The Army Now Chords & Tabs

Macabre Chords & Tabs

Version: 1 Type: Bass Tab 0 ratings
1 star 2 stars 3 stars 4 stars 5 stars
comments

In The Army Now Bass Tab

   
Band:  Macabre
Album: Dahmer
Song:  In the army now
Transcribed By: Giel Blankers
Email: gielblankers@hotmail.com


.  - palm mute           /  - slide up to
\  - slide down to       ~  - vibrato
h  - hammer on           b  - Bend
p  - pull off            Suffixes for bend
t  - tap                 f  - full bend    h - half bend
ph - pinched harmonic    q  - quarter bend t - tap bend
*  - see comment         ^  - Hold bend    r release bend
x  - Stuccatto           ~  - vibrato bend
,  - slight palm mute    () - ghost note, sustained note
"  - tremolo note        <> - Trill

Tunning e a d g

Riff 1
|-----------------|-------------------------------------------------|
|-----------------|-------------------------------------------------|
|-7-6-4-------4-6-|--777-666-444-------------444-666----------------|
|-------7-5-7-----|--------------777-555-777------------------------|
[ Tab from: http://www.guitartabs.cc/tabs/m/macabre/in_the_army_now_btab.html ]
riff 2a
|-------------------------------------------------------------------|
|------6---------777--6--7-9-----------------------6----------------|
|-777--------7-------------------7777---7777---777-----7------------|
|---------7--------------------7------7------7-------7--------------|

riff 2b
|-------------------------------------------------------------------|
|-6-9--6-9--6---------6----6------------------------------6---------|
|-------------7-----7----7----7---------7777---7777---777-----7-----|
|-------------------------------7-----7------7------7-------7-------|

riff 4
|------------------------------------------------------------------>
|------4-5-4-5-------------------4-5-4-5--7-9--7-9----------------->
|-7777---------5-5-----5----7777----------------------------------->
|--------------------7--------------------------------------------->

>-------------------------------------------------------------------|
>-7-999-5-777-4-555-2-444-/-9-7-5-4---------------------------------|
>-----------------------------------7777-5-7------------------------|
>-------------------------------------------------------------------|

Visit MetalTabs.com for more metal tablatur
Comments