Macabre - How About Some Coffee Chords & Tabs

 

How About Some Coffee Chords & Tabs

Macabre Chords & Tabs

Version: 1 Type: Tab 0 ratings
1 star 2 stars 3 stars 4 stars 5 stars
comments

How About Some Coffee Tab

   
ARTIST: Macabre
SONG: How 'Bout Some Coffee (Jeffrey Dahmer)
ALBUM: Dahmer
TRANSCRIBED BY: Steve Fitzy (B_L_A_C_K_R_O_S_E@hotmail.com)

NOTE: This is pretty much right, sounds good anyway
      You can play it differently, maybe easyier,
      if it isn't already easy enough, but this is
      how I like to play it. Enjoy

Tuning: Your guitar has to be tuned like a 7-String with the 6th string
(or 7th depending on your Axe), tuned to B, then follows E, A, D, F#, B (+E for 7-S)
Most Songs on dahmer have this tuning, I make up a lot of my work in this tuning
And it sounds great!


Starts connecting with last song,
|------------------------------------|
|------------------------------------|
|---------------------11-10-9--------| Once
|--------------10-9-8----------------|
|--------9-8-7-----------------------|
|--8-7-7-----------------------------|


RIFF A
|-------------------------------------------------------|
|-------------------------------------------------------|
|---------------------------------------------11-10-9---| 7x
|--2-2-2-2-2-2-2-2-2-2-2-2-------------10-9-8-----------|
|--2-2-2-2-2-2-2-2-2-2-2-2-------9-8-7------------------|
|--0-0-0-0-0-0-0-0-0-0-0-0-8-7-6------------------------|
     \12x/

Chorus
|-------------------------------------------------------|
|-------------------------------------------------------|
|-------------------------------------------------------| 4x
|--2-2-2-3---2-2-2-4---2-2-2-5--6--7--------------------|
|--2-2-2-3---2-2-2-4---2-2-2-5--6--7--------------------|
|--0-0-0-1---0-0-0-2---0-0-0-3--4--5--------------------|

Now Play "Riff 1" another 6x
Back to "Chorus" for 4x
Then...

This Next piece 2/3 way through the song might be Pox
Fuckin' Hard Working out 2 Guitars n' a Bass playing
Different weird shit at the same time!, sounds alright but...

I've arranged it for one Guitar, If you feel this sounds shity,
Just Only Play the High Note at the End of Each Riff.

RIFF B
|-------------------------------------------------------|
|-------------------------------------------------------|
|-------------------------------------------7~~~--------|
|-------------------------------7-7-7-6-6-6-6~~~--------|
|-------------------7-7-7-6-6-6-------------------------|
|-0-0-0-7-7-7-6-6-6-------------------------------------|

Play this piece fuckin' fast!
I think It's 4 Times the speed, Who Knows?
|-------------------------------------------------------|
|-------------------------------------------------------|
|-------------------------------------------------------|
|-------------------------------------------------------|
|-------------------------------------------------------|
|-000000000000777777777777666666666666------------------|

|-------------------------------------------------------|
|-------------------------------------------------------|
|--------------------------------------------------7~~/-|
|-------------------------777777777777666666666666-6~~/-|
|-777777777777666666666666------------------------------|
|-------------------------------------------------------|
[ Tab from: http://www.guitartabs.cc/tabs/m/macabre/how_about_some_coffee_tab.html ]
|-------------------------------------------------------|
|-------------------------------------------------------|
|-------------------------------------------5~~---------|
|-------------------------------5-5-5-4-4-4-7~~---------|
|-------------------5-5-5-4-4-4-------------------------|
|-0-0-0-5-5-5-4-4-4-------------------------------------|

|-------------------------------------------------------|
|-------------------------------------------------------|
|-------------------------------------------------------|
|-------------------------------------------------------|
|-------------------------------------------------------|
|-000000000000555555555555444444444444------------------|

|-------------------------------------------------------|
|-------------------------------------------------------|
|--------------------------------------------------5~~/-|
|-------------------------555555555555444444444444-7~~/-|
|-555555555555444444444444------------------------------|
|-------------------------------------------------------|

|-------------------------------------------------------|
|-------------------------------------------------------|
|-------------------------------------------3~~---------|
|-------------------------------3-3-3-2-2-2-6~~---------|
|-------------------3-3-3-2-2-2-------------------------|
|-0-0-0-3-3-3-2-2-2-------------------------------------|

|-------------------------------------------------------|
|-------------------------------------------------------|
|-------------------------------------------------------|
|-------------------------------------------------------|
|-------------------------------------------------------|
|-000000000000333333333333222222222222------------------|

|-------------------------------------------------------|
|-------------------------------------------------------|
|--------------------------------------------------3~~/-|
|-------------------------333333333333222222222222-6~~/-|
|-333333333333222222222222------------------------------|
|-------------------------------------------------------|

|-------------------------------------------------------|
|-------------------------------------------------------|
|-------------------------------------------2~~---------|
|-------------------------------2-2-2-1-1-1-3~~---------|
|-------------------2-2-2-1-1-1-------------------------|
|-0-0-0-2-2-2-1-1-1-------------------------------------|

|-------------------------------------------------------|
|-------------------------------------------------------|
|-------------------------------------------------------|
|-------------------------------------------------------|
|-------------------------------------------------------|
|-000000000000222222222222111111111111------------------|

|-------------------------------------------------------|
|--------------------------------------------------/14\-| Slide Up
|--------------------------------------------------/14\-| 2 Around
|-------------------------222222222222111111111111-/14\-| Here, Then
|-222222222222111111111111------------------------------| Back Down
|-------------------------------------------------------|

Now Back to "Riff 1" for another 2x
Then "Chorus" Again for 4x
Then Finish with "Riff 1" Again, 4x

Visit MetalTabs.com for more metal tablatur
Comments