Mac Dre - Since 84 Chords & Tabs

 

Since 84 Chords & Tabs

Mac Dre Chords & Tabs

Version: 1 Type: Tab

Since 84 Tab

   
---------------------------------------------------------------------------
		     Mac Dre - Since 84'
---------------------------------------------------------------------------

Tabbed by: Pabashe
Email: pabashe@hotmail.com

Capo 7th fret
Tuning:


strumming intro... Am => Em => Am => Em => Am => Em for a long time.
[ Tab from: http://www.guitartabs.cc/tabs/m/mac_dre/since_84_tab.html ]
e|----------------------------------------------------------------------|
B|-1-----------------1--------------------------------------------------|
G|-2-----------------2--------------------------------------------------|
D|-2--------2--------2--------2-----------------------------------------|
A|----------2-----------------2-----------------------------------------|
E|----------------------------------------------------------------------|


solo played through verse

e|--77-5-3--33-5-7---77-5-3---33-5-7------------------------------------|
B|----------------------------------------------------------------------|
G|----------------------------------------------------------------------|
D|----------------------------------------------------------------------|
A|----------------------------------------------------------------------|
E|----------------------------------------------------------------------|


===============================================================================

http://www.macdreezy.com/