Ma Fernando - Romance Anonimo Chords & Tabs

 

Romance Anonimo Chords & Tabs

Ma Fernando Chords & Tabs

Version: 1 Type: Tab 0 ratings
1 star 2 stars 3 stars 4 stars 5 stars
comments

Romance Anonimo Tab

#----------------------------------PLEASE NOTE---------------------------------#
#This file is the author's own work and represents their interpretation of the #
#song. You may only use this file for private study, scholarship, or research. #
#------------------------------------------------------------------------------##

                          ROMANCE ANONIMO (TRADITIONAL)
                               As recorded by Fernando MA

Music by Anonimo

|-7-----7-----7-----7-----5-----3-----3-----2-----0-----0-----3-----7----|
|---0-----0-----0-----0-----0-----0-----0-----0-----0-----0-----0-----0--|
|-----0-----0-----0-----0-----0-----0-----0-----0-----0-----0-----0------|
|------------------------------------------------------------------------|
|------------------------------------------------------------------------|
|-0-----------------0-----------------0-----------------0----------------|


|---12-----12-----12-----12-----10-----8-----8-----7-----5-----5-----7-----8--|
|------0------0------0------0------0-----0-----5-----5-----5-----5-----5------|
|-0------0------0------0------0------0-----0-----5-----5-----5-----5-----5----|
|-----------------------------------------------------------------------------|
|--------------------------------------------0-----------------0--------------|
|----0--------------------0---------------------------------------------------|


|-----7-----8-----7-----11-----8-----7-----7-----5-----3-----3-----2------|
|-5-----7-----7-----7------7-----7-----7-----0-----0-----0-----0-----0----|
|---5-----8-----8-----8------8-----8-----8-----0-----0-----0-----0-----0--|
|-------------------------------------------------------------------------|
|-------------------------------------------------------------------------|
|-----7------------------7-----------------0-----------------0------------|

[ Tab from: http://www.guitartabs.cc/tabs/m/ma_fernando/romance_anonimo_tab.html ]
|-0-----2-----2-----2-----2-----3-----2-----0-----0-----0-----0--|
|---0-----0-----0-----0-----0-----0-----0-----0-----0-----0------|
|-----0-----2-----2-----2-----2-----2-----2-----0-----0-----0----|
|-------------------------1-----------------2--------------------|
|-------2-----------------------------------------2--------------|
|-------------------------------------------------------1-----0--|


|-4-----4-----4-----4-----2-----0----------------------------------------|
|---0-----0-----0-----0-----0-----0---5-----4-----4-----4-----3-----4----|
|-----1-----1-----1-----1-----1-----1---2-----2-----2-----2-----2-----2--|
|-----------------------------------------4-----4-----4-----1-----4------|
|------------------------------------------------------------------------|
|-0-----------------0-----------------2-----------------2----------------|


|---9-----9-----9-----9-----11-----9-----9-----7-----7------|
|-----7-----7-----7-----7------7-----7-----9-----9-----9----|
|-------8-----8-----8-----8------8-----8-----9-----9-----9--|
|-4---------------------------------------------------------|
|-----------------------------------------------------------|
|---7-----------------7------------------0------------------|


|-7-----9-----11-----12-----12-----12-----12-----11-----10-----9-----9-----9----|
|---9-----9------9------9------9------9------9------9------9-----5-----5-----5--|
|-----9-----9------9------9------9------9------9------9------9-----6-----6------|
|-------------------------------------------------------------------------------|
|-------------------------------------------------------------------------------|
|-0-------------------0--------------------0-------------------5----------------|


|---9-----7-----5-----4-----4-----4-----4-----5-----2-----0-----0------|
|-----5-----5-----5-----0-----0-----0-----0-----0-----0-----0-----0----|
|-6-----6-----6-----6-----2-----2-----2-----2-----2-----2-----1-----1--|
|---------------------------------------1-----------------2------------|
|---------------------2-----------------------------------------2------|
|---5------------------------------------------------------------------|


|-0-----0--|
|---0------|
|-----1----|
|----------|
|----------|
|-4-----0--|



******************************************************************************************
* This file was generated with Power Tab Editor - Get it at http://home.tct.net/~blarsen *
******************************************************************************************
Comments